PrimaNota.ru - самый крупный в мире бесплатный архив песенных текстов, аккордов, табулатур и нот


Entombed - Like This With The Devil - текст песни, таба, видео

Регистрация Запомнить меня
Войти через:  Facebook Google Twitter Vk Yandex Mail.ru

Entombed - Like This With The Devil - текст песни, таба, видео

Печатать
Просмотров: 119
Band- Entombed
Song- Like This With The Devil

Tune down to C (down 2 whole steps)

h/p = hammer on/pull off
b/r = bend/release
. = palm mute

Main Riff
e|-----------------------------------|
B|-----------------------------------|
G|-----------------------------------|
D|-----------------------------------|
A|-----7-----------------------------|
E|-0-5---0-5-6-0-5h6p5p0-5-0-3-5-3-0-|

The first two lines of the verse are sung over this chord: Ei(022xxx).
The third line is over this chord: Eii(x799xx). Then play the rhythm
below.

Mid Verse
e|-------------------------------------------------------------|
B|-------------------------------------------------------------|
G|-------------------------------------------------------------|
D|-9-9-9-9-9--9--9-9-9-9-9-9-9-9-9-9-9-9-9--9--9-9-9-9-9-9-9-9-|
A|-7-7-7-7-7--7--7-7-7-7-7-7-7-7-7-7-7-7-7--7--7-7-7-7-7-7-7-7-|
E|-------------------------------------------------------------|
   . . . .       . . . .         . . . .       . . . .
cont..
e|-----------------------------------------------------|
B|-----------------------------------------------------|
G|-----------------------------------------------------|
D|-9-9-9-9-9--9--7--7--------15---15-15-15-15-15-15-15-|
A|-7-7-7-7-7--7--5--5--8--8--13---13-13-13-13-13-13-13-|
E|---------------------6--6----------------------------|
   . . . .

The rest of the verse is over the Main Riff.

Chorus
e|------------------------------------------------|
B|------------------------------------------------|
G|------------------------------------------------|
D|-10---10-9--9-7---7--7--7-----------------------|
A|-8----8--7--7-5---5--5--5----5-8-8--8-7--5--3-2-|
E|---------------------------6-----6--6-5--3--1-0-|

Bridge/Solo Backing
e|---------------------------------------------------------------|
B|---------------------------------------------------------------|
G|-------------------------------5"------9"------8-------9-------|
D|-------------------------------5"------9"------8-------9-------|
A|-2-2-2-2-2-2-2-2-2-2-2-2-2-2-2-3"------7"------6-------7-------|
E|-0-0-0-0-0-0-0-0-0-0-0-0-0-0-0---------------------------------|
   . . . . . . . . . . . . . . .
cont..
e|----------------------------------------------------|
B|----------------------------------------------------|
G|-5-------9-------8-------------------------9--------|
D|-5-------9-------8-------8-------8-8-------9--------|
A|-3-------7-------6---5---6---5---6-6-------7--------|
E|---------------------3-------3----------------------|

Then play the Main Riff once, then it's back to the Chorus riff,
followed by the Coda.

Coda x3 x1
e|---------------------|------------------------|
B|---------------------|------------------------|
G|---------------------|---7-10-----------------|
D|---------------------|-8-------7-7-5-5-3-3-2--|
A|-8--8-7--7-5--5-3--2-|---------------------2--|
E|-6--6-5--5-3--3-1--0-|---------------------0--|
Добавлено: 25.06.2012
Другие материалы по этой песне:
  • Аккорды и текст

Страница создана 26.03.2012
http://primanota.ru/entombed/like-this-with-the-devil-chords.htm
Привет, Гость.
Предлагаем пройти революционный курс по гитаре.
Подарок от PrimaNota.Ru, забирай!