PrimaNota.ru - самый крупный в мире бесплатный архив песенных текстов, аккордов, табулатур и нот


Entombed - Night Of The Vampire - текст песни, таба, видео

Регистрация Запомнить меня
Войти через:  Facebook Google Twitter Vk Yandex Mail.ru

Entombed - Night Of The Vampire - текст песни, таба, видео

Печатать
Просмотров: 166
Авторы музыки: Roky Erickson
Авторы текста: Roky Erickson
Band:  Entombed
Album: Sons of Satan Praise the Lord
Song:  Night of the Vampire (Roky Erikson cover)

Copyright (c)  (Threeman Recordings) (2002)
Version 1.0 - (17/05/06)

Transcribed By: Steve
Email:          stephen.elvidge1@ntlworld.com


.  - palm mute           /  - slide up to
\  - slide down to       ~  - vibrato
h  - hammer on           b  - Bend
p  - pull off            Suffixes for bend
t  - tap                 f  - full bend    h - half bend
ph - pinched harmonic    q  - quarter bend t - tap bend
                         p  - pre bend
*  - see comment         ^  - Hold bend    r release bend
x  - Stuccatto           ~  - vibrato bend
,  - slight palm mute    () - ghost note, sustained note
"  - tremolo note        <> - harmonic

Tuning: Detune 2 whole steps to C

 Intro

 Feedback


 Guitar 1
[---------------------------------------|
[---------------------------------------|
[---------------------------------------|
[-9------5------------------4--2--------|
[-7------3---/5\3-----------2--0--5\4---|
[-0---------------3-/5------------3\2---|
[ Guitar 2
[  ~~~~~~~~~~~~~~~~~~~~~~~~~~~~~~~~~~~~
[---------------------------------------|
[--------13-15-13-----------12-10-------|
[-9---------------12-14-----------12-11-|
[---------------------------------------|
[---------------------------------------|
[---------------------------------------|

 Guitar 1
[---------------------------------------|
[---------------------------------------|
[---------------------------------------|
[-9------5------------------4--2--------|
[-7------3---/5\3-----------2--0--5\4---|
[-0---------------3-/5------------3\2---|
[ Guitar 2
[  ~~~~~~~~~~~~~~~~~~~~~~~~~~~~~~~~~~~~
[---------------------------------------|
[--------13br--13-----------12-10-------|
[-9---------------12-14-----------12-11-|
[---------------------------------------|
[---------------------------------------|
[---------------------------------------|

 Main Riff

 Guitar 1
              ~~~~~~~~~    ~~~~~~~~
[--------------------------------------------|
[--------------------------------------------|
[--------------------------------------------|
[--------------------------------------------|
[-2--(2)--2-4/5--(5)--7/9/------------7\5\4--|
[-0--(0)--0-2/3--(3)--5/7/8--(8)---\7\5\3\2--|
[Guitar 2
[             
[------0----------3-----------3--------------|
[----0---0------0---0-------0---0------------|
[--------------------------------------------|
[--------------------------------------------|
[-2--(2)--------------0-2-3--(3)---2-0-------|
[-0--(0)--0-2/3--(3)-------------------3\2---| Rpt 4 x


 Bridge

 Guitar 1
    [--PM--] [PM]
[-------------------------------------------------------|
[-------------------------------------------------------|
[------------------0---0----0---0---0---0---0----0---0--|
[--------------------4----4---4---4---4----4---4---4----|
[-2--------2-----5--------------------------------------|
[-0--0-0-0-0-0-2-3--------------------------------------|
[Guitar 2
[   [--PM--] [PM]    [--PM--] [PM]  [--PM--] PM
[-------------------------------------------------------|
[-------------------------------------------------------|
[-------------------------------------------------------|
[-------------------------------------------------------|
[-2--------2-----5--------5---7/9/10-------10--9\7\5\4--|
[-0--0-0-0-0-0-2-3--3-3-3-3-3-5/7/8--8-8-8-8-8-7\5\3\2--|

 Rpt Main Riff 4 X for chorus

 Pick scrape on 1st main riff half way through
|-------------|
|-------------|
|-------------|
|-\-\---------|
|--\-\--------|
|-------------|

 Rpt Bridge

 Rpt Main Riff 2 x with lead below
                ~~~~~~~~~~~~~~~~~~~~~~~~
|-----------14-15-----\--------------------------------|
|----------------------12-13-------------12-10---------|
|----------------------------------------------12-11---|
|------------------------------------------------------|
|------------------------------------------------------|
|------------------------------------------------------|

                ~~~~~~~~~~~~~~~~~~~~~~~~~~~~~~~~~~~~~~~
|-----------14-15------14-15-------------19------------|
|------------------------------------------------------|
|------------------------------------------------------|
|------------------------------------------------------|
|------------------------------------------------------|
|------------------------------------------------------|

 Guitar 1
[------------------------------------|
[------------------------------------|
[------------------------------------|
[-----------------------------5-\4---|
[-2---------(2)----Drum fill--3-\2---|
[-0---------(0)----------------------|
[Guitar
[  ~~~~~~~~~~~~~~~~~~~~~~~~~~~
[------------------------------------|
[-17-------(17)-------------\-13-12--|
[------------------------------------|
[------------------------------------|
[------------------------------------|
[------------------------------------|


 Guitar 1
[--------------------------------------|
[--------------------------------------|
[-9--9-9-9-9--9-9-9-9--9-9-9-9-9-9-9-9-|
[-9--9-9-9-9--9-9-9-9--9-9-9-9-9-9-9-9-|
[-7--7-7-7-7--7-7-7-7--7-7-7-7-7-7-7-7-|
[--------------------------------------|
[Guitar 2
[ ~~~~~~~~~~~~~~~~~~~~~~~~~~~~~~~
[--------------------------------------|
[--------------------------------------|
[/9--------------------------------9\--|
[--------------------------------------|
[--------------------------------------|
[--------------------------------------|


 Guitar 1
[---------------------------------------|
[---------------------------------------|
[-5--5-5-5-5--5-5-5-5--5-5-5-5-5-5-5-5--|
[-5--5-5-5-5--5-5-5-5--5-5-5-5-5-5-5-5--|
[-3--3-3-3-3--3-3-3-3--3-3-3-3-3-3-3-3--|
[---------------------------------------|
[Guitar 2
[ ~~~~~~~~~~~~~~~~~~~~~~~~~~~~~~~~~~~~~
[---------------------------------------|
[---------------------------------------|
[\5-------------------------------------|
[---------------------------------------|
[---------------------------------------|
[---------------------------------------|


 Guitar 1
[---------------------------------------|
[---------------------------------------|
[-7--7-7-7-7--7-7-7-7--7-7-7-7-7-7-7-7--|
[-7--7-7-7-7--7-7-7-7--7-7-7-7-7-7-7-7--|
[-5--5-5-5-5--5-5-5-5--5-5-5-5-5-5-5-5--|
[---------------------------------------|
[Guitar 2
[ ~~~~~~~~~~~~~~~~~~~~~~~~~~~~~~~~~~~~~
[---------------------------------------|
[-------------------------------10b-----|
[/7-------------------------------------|
[---------------------------------------|
[---------------------------------------|
[---------------------------------------|


|--------------------------------------|
|--------------------------------------|
|-9--9-9-9-9--9-9-9-9--9-9-9-9-9-9-9-9-|
|-9--9-9-9-9--9-9-9-9--9-9-9-9-9-9-9-9-|
|-7--7-7-7-7--7-7-7-7--7-7-7-7-7-7-7-7-|
|--------------------------------------|


|-------------------------------------------|
|-------------------------------------------|
|-5--5-5-5-5--5-5-5-5--7--7-7-7-7--7-7-7-7--|
|-5--5-5-5-5--5-5-5-5--7--7-7-7-7--7-7-7-7--|
|-3--3-3-3-3--3-3-3-3--5--5-5-5-5--5-5-5-5--|
|-------------------------------------------|
 Rpt above with the following lead fills

  E

|----------------7-------------|
|---7-8----7-8-----8-7---7-----|
|-9--------------------9---9---|
|------------------------------|
|------------------------------|
|------------------------------|

  C            D         E
   ~~~~~~~~~~~~~~~~~~~~~~   ~~~        ~~~~~~~~~~~~
|--------------------10b---------------------------|
|-8-------8----10--------8-------8----10b10b10b1b--|
|--------------------------9---9---9---------------|
|--------------------------------------------------|
|--------------------------------------------------|
|--------------------------------------------------|

 Guitar 1
  C             D               E
   ~~~~~~~~~~~~~~~~~~~~~~~~~~~~~~~~~~~~~~~~~~~~~~~~~~~~~~~~~~~~~~~~~
[-------------------------------------------------------------------|
[-12b----------13fb-----------15fb-15fb-15fb-15fb-15fb-15fb-15fb----|
[-------------------------------------------------------------------|
[-------------------------------------------------------------------|
[-------------------------------------------------------------------|
[-------------------------------------------------------------------|
[Guitar 2                                                ~~~~~~~~~~~
[-------------------------------------------------------------------|
[-------------------------------------------------------------------|
[-------------------------------------------------------------------|
[-------------------------------------------------------14fb--------|
[------------------------------2----2----2----2---------------------|
[------------------------------0----0----0----0---------------------|

 Backing for guitar solo


 Guitar 1
              ~~~~~~~~~    ~~~~~~~~
[--------------------------------------------|
[--------------------------------------------|
[--------------------------------------------|
[--------------------------------------------|
[-2--(2)--2-4/5--(5)--7/9/----12\10---7\5\4--|
[-0--(0)--0-2/3--(3)--5/7/8---10\8-\7\5\3\2--|
[Guitar 2
[             
[------0----------3-----------3--------------|
[----0---0------0---0-------0---0------------|
[--------------------------------------------|
[--------------------------------------------|
[-2--(2)--------------0-2-3--(3)---2-0-------|
[-0--(0)--0-2/3--(3)-------------------3\2---| Rpt 4 x


 Guitar solo

  With wah
      ~~~    ~~~   ~~~~   ~~~~~~~            ~~        ~~~~~~~~~~
|------------------------------------------------------------------|
|-17-20b-17-20b-17-20b-17-20b-------------------15p12--------------|
|-----------------------------19br16----16--14b-------pb14r14p12---|
|------------------------------------19----------------------------|
|------------------------------------------------------------------|
|------------------------------------------------------------------|

             ~~~~~~~~~~~~~~~~~~~~~~~~~  ~~~~~~~~~~~~~~~~~~~~
|-------------------------17fb-r-17fb-p15----------------------------|
|--------------------------------------------15fb--15fb-15--13-12-13-|
|-----------12-------------------------------------------------------|
|-14-12-14-----------------------------------------------------------|
|--------------------------------------------------------------------|
|--------------------------------------------------------------------|

   ~~~~               ~~~~~~~~    ~~~~~~~~~~~~~~~~     ~~~
|-------------------------pb17r\-17fb-17fb-17fb-r15-17-15--|
|-13br12-13-12---------------------------------------------|
|--------------14-12---------------------------------------|
|--------------------14------------------------------------|
|----------------------------------------------------------|
|----------------------------------------------------------|

   ~~~~~~~~~~~    ~~~~~~~~~~~~~~~~~~~~~~~~~~~~~~~~~~~~~~~~~~~~~~~~~~
|-22fbr22-----\--17fb--17fb-17fb-17fb--17fb--20fb--------20fb-------|
|-------------------------------------------------------------------|
|-------------------------------------------------------------------|
|-------------------------------------------------------------------|
|-------------------------------------------------------------------|
|-------------------------------------------------------------------|

 Rpt Bridge

 Rpt Main Riff 8 x 

 Guitar enters 3rd

|------3------------------3----------|
|---/5---5--------------5---5-3-1-0--|
|-----------4-5-4-3-4----------------|
|------------------------------------|
|---------------------3--------------|
|-0----------------------------------|


|------3------------------3--------------|
|---/5---5--------------5---5------------|
|----------------------------------------|
|---------------------2------------------|
|----------/2-3-2\1-2---------/2-3-2\1-2-|
|-0--------------------------------------|

 Guitar 1
[------3------------------3--------------|
[---/5---5--------------5---5------------|
[----------------------------------------|
[---------------------2------------------|
[----------/2-3-2\1-2---------/2-3-2\1-2-|
[-0--------------------------------------|
[Guitar 2
[----2------------------3----------------|
[------3------------------3--------------|
[--------4--4-5-4\3-4/4-----4--4-5-4\3-4-|
[-2--------------------------------------|
[----------------------------------------|
[----------------------------------------|


 Guitar 1
[----2------------------3----------------|
[------3------------------3--------------|
[--------4--4-5-4\3-4/4-----4--4-5-4\3-4-|
[-2--------------------------------------|
[----------------------------------------|
[----------------------------------------|
[Guitar 2
[----7------------------8----------------|
[------8----5-6-5\4-5-----8----5-6-5\4-5-|
[/9------9-----------/9-----9------------|
[----------------------------------------|
[----------------------------------------|
[----------------------------------------|

 Guitar 1
[----7-------------------------8----------------------|
[-------8----5--6---5-\4--5------8----5--6---5-\4--5--|
[/9--------9----------------/9------9-----------------|
[-----------------------------------------------------|
[-----------------------------------------------------|
[-----------------------------------------------------|
[Guitar 2
[----14------------------------15---------------------|
[/12---15-12-12-13-12\11-12/12---15-12-12-13-12\11-12-|
[-----------------------------------------------------|
[-----------------------------------------------------|
[-----------------------------------------------------|
[-----------------------------------------------------|

 Guitar 1
[----14------------------------15---------------------|
[/12---15-12-12-13-12\11-12/12---15-12-12-13-12\11-12-|
[-----------------------------------------------------|
[-----------------------------------------------------|
[-----------------------------------------------------|
[-----------------------------------------------------|
[Guitar 2
[----19------------------------20---------------------|
[/17---20-17-17-18-17\16-17/17---20-17-17-18-17\16-17-|
[-----------------------------------------------------|
[-----------------------------------------------------|
[-----------------------------------------------------|
[-----------------------------------------------------|


 Guitar 1
[-------------------------------------------------------------------|
[-------------------------------------------------------------------|
[-------------------------------------------------------------------|
[-------------------------------------------------------------------|
[-2-----------------------------(2)--------------Drum fill----------|
[-0-----------------------------(0)---------------------------------|
[Guitar 2
[   ~~~~~~~~~~~~~~~~~~~~~~~~~~~~~~~~~~~~~~~~~~~~~~  Pick Scrape
[-------------------------------------------------------------------|
[-15fb--------------------to feedback-------------------------------|
[-------------------------------------------------------------------|
[------------------------------------------------------\-\----------|
[-------------------------------------------------------\-\---------|
[-------------------------------------------------------------------|

   [--PM-]     [-PM-]    [-PM-]
|-------------------------------------------|
|-------------------------------------------|
|-------------------------------------------|
|---------------------4/5------/7\5\4-2-----|
|-2-------2-4/5-------2/3-3-3-3/5\3\2-0-5\4-|
|-0-0-0-0-0-2/3-3-3-3-------------------3\2-| Rpt 6 X 

|-------------------------------------------------------------------|
|-------------------------------------------------------------------|
|-------------------------------------------------------------------|
|-2-2-2-2-2-2-2-2-2-2-2-2-2-2-------------(2)------------------2-\--|
|-2-2-2-2-2-2-2-2-2-2-2-2-2-2-------------(2)------------------2-\--|
|-0-0-0-0-0-0-0-0-0-0-0-0-0-0-------------(0)------------------0-\--|


END

Добавлено: 21.07.2012
Другие материалы по этой песне:
  • Аккорды и текст

Страница создана 22.03.2012
http://primanota.ru/entombed/night-of-the-vampire-chords.htm
Привет, Гость.
Предлагаем пройти революционный курс по гитаре.
Подарок от PrimaNota.Ru, забирай!