PrimaNota.ru - самый крупный в мире бесплатный архив песенных текстов, аккордов, табулатур и нот


Entombed - Carnal Leftovers - текст песни, таба, видео

Регистрация Запомнить меня
Войти через:  Facebook Google Twitter Vk Yandex Mail.ru

Entombed - Carnal Leftovers - текст песни, таба, видео

Печатать
Просмотров: 127
Авторы музыки: Nicke Andersson
Авторы текста: Nicke Andersson
Band:  Entombed
Album: Left Hand Path
Song:  Carnal Leftovers

Copyright Entombed and respective labels

Tabbed by Krizzz of Project666
astropharia@gmx.de

Tablature Legend
----------------
 h   - hammer-on
 p   - pull-off
 b   - bend
 pb  - pre-bend
 r   - bend release (if no number after the r, then release immediately)
 /\  - slide into or out of (from/to "nowhere")
 s   - legato slide
 S   - shift slide
  - natural harmonic
[n]  - artificial harmonic
n(n) - tapped harmonic
 ~   - vibrato
 tr  - trill
 T   - tap
 TP  - trem. picking
 PM  - palm muting
\n/  - tremolo bar dip; n = amount to dip
 \n  - tremolo bar down
 n/  - tremolo bar up
/n\  - tremolo bar inverted dip
 =   - hold bend; also acts as connecting device for hammers/pulls
 <>  - volume swell (louder/softer)
 x   - on rhythm slash represents muted slash
 o   - on rhythm slash represents single note slash

Gtr I  Tuning (B E A D F# B)
Gtr II Tuning (B E A D F# B)

----------------------------------------------------------------------------
ENTOMBED - Carnal Leftovers - Left Hand Path
----------------------------------------------------------------------------

Riff A x4

    Gtr I
                                                                  4x
|-------------------------------------------------------------------|
|-------------------------------------------------------------------|
|-------5-5-5--------7-7-7-------5-5-5-7---------------------------|
|-2-2-2-5-5-5-2-2-2-7-7-7-2-2-2-5-5-5-5---7---9---9-9-9----------|
|-2-2-2-3-3-3-2-2-2-5-5-5-2-2-2-3-3-3-----5---7---7-7-7----------|
|-0-0-0-------0-0-0--------0-0-0-----------------------------------|
|
|   Gtr II
|                                                                  4x
|-------------------------------------------------------------------|
|-------------------------------------------------------------------|
|-------5-5-5--------7-7-7-------5-5-5-7---------------------------|
|-2-2-2-5-5-5-2-2-2-7-7-7-2-2-2-5-5-5-5---7---9---9-9-9----------|
|-2-2-2-3-3-3-2-2-2-5-5-5-2-2-2-3-3-3-----5---7---7-7-7----------|
|-0-0-0-------0-0-0--------0-0-0-----------------------------------|

..................................................................................................
Riff B x6  *Git I introduces 2 times, then second Git jumps on*

    Gtr I                                                          6x
|-------------------------------------------------------------------|
|-------------------------------------------------------------------|
|-------------------------------------------------------------------| 
|-------------------------------------------------------------------|
|----------6/7----------5/6----------6/7-----------5---8-----------|
|-0-0-0-0------0-0-0-0-----0-0-0-0------0-0-0-0--3---6------------|
|              tr                tr               tr
|   Gtr II                                                        4x
|
|-------------------------------------------------------------------|
|-------------------------------------------------------------------|
|-------------------------------------------------------------------| 
|-------------------------------------------------------------------|
|----------6/7----------5/6----------6/7-----------5---8-----------|
|-0-0-0-0------0-0-0-0-----0-0-0-0------0-0-0-0--3---6------------|
|              tr                tr               tr

..................................................................................................
Riff C x2

    Gtr I   (Part1) play 3x                       then play Ending 1x
|-----------------------------|------------------------------------l
|-----------------------------|------------------------------------l
|-----------------------------|---------------7-9-7----------------l
|-----------------------------|---------------------9-8-7----------l
|-2-2-2-5-5-5-2-2-2-8-8-8---|-2-2-2-5-5-5--------------10-9-8---l
|-0-0-0-3-3-3-0-0-0-6-6-6---|-0-0-0-3-3-3------------------------l
|
|   Gtr II  (Part1) play 3x                       then play Ending 1x
|
|-----------------------------|------------------------------------l
|-----------------------------|------------------------------------l
|-----------------------------|---------------7-9-7----------------l
|-----------------------------|---------------------9-8-7----------l
|-2-2-2-5-5-5-2-2-2-8-8-8---|-2-2-2-5-5-5--------------10-9-8---l
|-0-0-0-3-3-3-0-0-0-6-6-6---|-0-0-0-3-3-3------------------------l

........................................................................................................
Riff D  x1

    Gtr I
|----------------------------------------------------------------------------|
|----------------------------------------------------------------------------|
|-----------------------------5-------------------------------------7--------| 
|-9--11--12------9--11--12------5------9--11--12------9--11--12------7-----|
|-7---9--10--10--7---9--10---------5---7---9--10--10--7---9--10---------7--|
|-------------8-------------------------------------8-------------------------|
|                                       ~  ~  ~                                         ~  ~  ~
|   Gtr II
|
|----------------------------------------------------------------------------|
|----------------------------------------------------------------------------|
|-----------------------------5-------------------------------------7--------| 
|-9--11--12------9--11--12------5------9--11--12------9--11--12------7-----|
|-7---9--10--10--7---9--10---------5---7---9--10--10--7---9--10---------7--|
|-------------8-------------------------------------8-------------------------|
|                                       ~  ~  ~                                         ~  ~  ~

............................................................................................................

Riff C x2

    Gtr I   (Part1) play 3x                       then play Ending 1x
|-----------------------------|------------------------------------l
|-----------------------------|------------------------------------l
|-----------------------------|---------------7-9-7----------------l
|-----------------------------|---------------------9-8-7----------l
|-2-2-2-5-5-5-2-2-2-8-8-8---|-2-2-2-5-5-5--------------10-9-8---l
|-0-0-0-3-3-3-0-0-0-6-6-6---|-0-0-0-3-3-3------------------------l
|
|   Gtr II  (Part1) play 3x                       then play Ending 1x
|
|-----------------------------|------------------------------------l
|-----------------------------|------------------------------------l
|-----------------------------|---------------7-9-7----------------l
|-----------------------------|---------------------9-8-7----------l
|-2-2-2-5-5-5-2-2-2-8-8-8---|-2-2-2-5-5-5--------------10-9-8---l
|-0-0-0-3-3-3-0-0-0-6-6-6---|-0-0-0-3-3-3------------------------l

........................................................................................................
Riff D  x1

    Gtr I
|----------------------------------------------------------------------------|
|----------------------------------------------------------------------------|
|-----------------------------5-------------------------------------7--------| 
|-9--11--12------9--11--12------5------9--11--12------9--11--12------7-----|
|-7---9--10--10--7---9--10---------5---7---9--10--10--7---9--10---------7--|
|-------------8-------------------------------------8-------------------------|
|                                       ~  ~  ~                                         ~  ~  ~
|   Gtr II
|
|----------------------------------------------------------------------------|
|----------------------------------------------------------------------------|
|-----------------------------5-------------------------------------7--------| 
|-9--11--12------9--11--12------5------9--11--12------9--11--12------7-----|
|-7---9--10--10--7---9--10---------5---7---9--10--10--7---9--10---------7--|
|-------------8-------------------------------------8-------------------------|
|                                       ~  ~  ~                                         ~  ~  ~

............................................................................................................
Riff E  x8        *Git I & II introduce 4 times, then Drums set in*

    Gtr I
|---------------------------------|
|---------------------------------|
|---------------------------------| 
|-2-------------------------------|
|-2----------6---5---4-----3---5--|
|-0--------5---4---3---0---1---3--|
|                              PM  PM  PM
|   Gtr II
|
|---------------------------------|
|---------------------------------|
|---------------------------------| 
|-2-------------------------------|
|-2----------6---5---4-----3---5--|
|-0--------5---4---3---0---1---3--|
|                              PM  PM  PM

............................................................................................................
Riff F x4   *slow*

    Gtr I    4x
|-------------|
|-------------|
|-------------| 
|-2----5--8---|
|-2----5--8---|
|-0----3--6---|
|
|   Gtr II   4x
|
|-------------|
|-------------|
|-------------| 
|-2----5--8---|
|-2----5--8---|
|-0----3--6---|

...........................................................................................................
Riff F2  x4    *rhythm*

     Gtr I    4x
|------------------------------|
|------------------------------|
|------------------------------| 
|-2--2--2--2---5--5/8--8--8/5-|
|-2--2--2--2---5--5/8--8--8/5-|
|-0--0--0--0---3--3/6--6--6/3-|
|    PM PM PM
|   Gtr II   4x
|
|------------------------------|
|------------------------------|
|------------------------------| 
|-2--2--2--2---5--5/8--8--8/5-|
|-2--2--2--2---5--5/8--8--8/5-|
|-0--0--0--0---3--3/6--6--6/3-|
|    PM PM PM
...........................................................................................................
Riff E(nd)

      Gtr I 
|-------------------------|
|-------------------------|
|-------------------------| 
|-2--2--2--2--5/8--8/5--2|
|-2--2--2--2--5/8--8/5--2|
|-0--0--0--0--3/6--6/3--0|
|    PM PM PM
l
l     Gtr II
|-------------------------|
|-------------------------|
|-------------------------| 
|-2--2--2--2--5/8--8/5--2|
|-2--2--2--2--5/8--8/5--2|
|-0--0--0--0--3/6--6/3--0|
|    PM PM PM

        -----END-----






Misc Legend
-----------
 |  - bar
||  - double bar
||o - repeat start
o|| - repeat end
*|  - double bar (ending)
 :  - bar (freetime)
 $  - Segno
 &  - Coda
Tempo markers -  = BPM(8/16=s8/s16), where s8 = swing 8ths, s16 = swing 16ths
Добавлено: 09.03.2012
Другие материалы по этой песне:
  • Аккорды и текст

Страница создана 09.03.2012
http://primanota.ru/entombed/carnal-leftovers-chords.htm
Привет, Гость.
Предлагаем пройти революционный курс по гитаре.
Подарок от PrimaNota.Ru, забирай!