PrimaNota.ru - самый крупный в мире бесплатный архив песенных текстов, аккордов, табулатур и нот


Entombed - Living Dead - аккорды и текст, таба, видео

Регистрация Запомнить меня
Войти через:  Facebook Google Twitter Vk Yandex Mail.ru

Entombed - Living Dead - аккорды и текст, таба, видео

Печатать
Просмотров: 126
Уроки эстрадного вокала в Санкт-Петербурге
Living Dead
Entombed
Intro:
|---------------------------------------------------------------|
|---------------------------------------------------------------|
|---------------------------------------------------------------|
|--------------------------------4-4-4-4-4-4-4-4----------------|
|------------4-4-3-3-3-3-3-3-3-3-----------------3-3-3-3--------|
|2-2-2-2-2-2---------------------------------------------3-3-3-3|

|--------------------------------------------------------------------|
|--------------------------------------------------------------------|
|--------------------------------------------------------------------|
|---------------------------------4-4-4-4-4-4-4-4-----7-7-7-7-7-7-7-7|
|-------------4-4-3-3-3-3-3-3-3-3-----------------3-3----------------|
|2-2-2-2-2-2---------------------------------------------------------|

|----------------------------------------------------------|
|--------------------------------7--7-7-7-7-7-7------------|
|------------6-6-5-5-5-5-5-5-5-5----------------5-5-5------|
|4-4-4-4-4-4------------------------------------------4^5^4|
|----------------------------------------------------------|
|----------------------------------------------------------|

|---------------------------------------------------------------|
|---------------------------------------------------------------|
|---------------------------------------------------------------|
|--------------------------------4-4-4-4-4-4-4-4----------------|
|------------4-4-3-3-3-3-3-3-3-3-----------------3-3-3-3--------|
|2-2-2-2-2-2-----------------------------------------------0-0--|
P.M                             . .

|----------------------------------------------------------|
|----------------------------------------------------------|
|----------------------------------------------------------|
|5-------------------8-------11-5--------------------------|Riff A
|5-------------------8-------11-5---------------7-6-4-6-6^7|
|3--3-3-3-3-3-3-3-3--6--6-6--9--3--3-3-3-3-3-3-------------|
P.M . . . . . . . .     . .        . . . . . .

|----------------------------------------------------------|
|----------------------------------------------------------|
|----------------------------------------------------------|
|5-------------------8-------11-5-5-5-5--8~~---------------|Riff A(cont'd)
|5-------------------8-------11-5-5-5-5--8~~---------------|
|3--3-3-3-3-3-3-3-3--6--6-6--9--3-3-3-3--6~~---------------|
P.M . . . . . . . .     . .

|---------------------------------------------------------------|
|---------------------------------------------------------------|
|---------------------------------------------------------------|
|------------9-9-8-8-8-8-9-9-9-9--------------------------------|X4Riff B
|------------7-7-6-6-6-6-7-7-7-7--------------------------------|
|0-0-0-0-0-0-----6-6-6-6-7-7-7-7--3-3-3-3-3-3--5-5-6-6-6-6-6-6-6|
 . . . . . .     . . . . . . . .  . . . . . .  . . . . . . . . . 

Riff A X 1


|----------------------|
|----------------------|
|----------------------|
|--------------------11|X2Riff C
|5--7--8----5--7--8--9-|
|3--5--6--0-3--5--6--9-|

Fill
|--slow bend-------------|
|----/^-----/------------|
|--/^    /   ----p.h---|
|-7------7--------7~~~~~~|
|------------------------|
|------------------------|

Repeat riff C x1 but hit an F chord instead of C# as the last note

|-------------------------------|
|-------------------------------|
|-------------------------------|
|------3-----2-----5---------2^3|Riff D
|2-2-2-3-2-2-2-2-2-5-2-2-2-2-0^1|
|0-0-0-1-0-0-0-0-0-3-0-0-0-0----|

|-------------------------------|
|-------------------------------|Riff D (cont'd)
|-------------------------------|
|------3-----2------------------|
|2-2-2-3-2-2-2-2-2--3-2-1------1|
|0-0-0-1-0-0-0-0-0--------3-2-1-|

|-------------------------------|
|-------------------------------|
|-------------------------------|
|------3-----2-----5---------2^3|Riff ( contd)
|2-2-2-3-2-2-2-2-2-5-2-2-2-2-0^1|
|0-0-0-1-0-0-0-0-0-3-0-0-0-0----|

|-----------------------|
|-----------------------|
|-----------------------|
|------------------5-4-3|RiffD (cont'd)  RIFF D IS PLAYED 3TIMES
|2-2-2-3-2-2--3-2-1-----|
|0-0-0-1-0-0------------|


Riff E
|------------------------------------------|
|------------------------------------------|
|------------------------------------------|iff E X8
|9-9-9-9--9--7-7-7-7--7---------------10-10|
|7-7-7-7--7--5-5-5-5--5-8-8-8-8--8----8---8|
|-----------------------6-6-6-6--6--0------|

Play Riff D X2


|------------------------------------|
|------------------------------------|
|------------------------------------|Riff F
|----------------------------6~--6//9|
|--------------8~--8-8-7~--7---------|X2
|6~----6-9~--9-----------------------|

Repeat riff F x2 with pm picking(listen to recording for rhythm)

|----------------------------------|
|----------------------------------|
|----------------------------------|
|-------------------------/14-13~~~|Riff G
|5----7--8----10-11-11-------------|
|3----5--6----8--9--9--------------|

|Solo|
Riff G X2

At this point at the end of the solo, the guitars just hit open power chords, just listen to the recording for the rhythm.

|----------------------------------------------------------------|
|----------------------------------------------------------------|
|----------------------------------------------------------------|
|---------------------------------2-2-2-2-3-3-3-3----------------|
|-------------------------------------------------5-5-5-5-4-4-4-4|
|0-0-0-0-1-1-1-1-3-3-3-3-4-4-4-4---------------------------------|

|------------------------------------------------10-10-10-10-9-9-9-9|
|--------------------------------5-5-5-5-6-6-6-6--------------------|
|-------------------------------------------------------------------|
|2-2-2-2-3-3-3-3-5-5-5-5-6-6-6-6------------------------------------|
|-------------------------------------------------------------------|
|-------------------------------------------------------------------|

|-----|
|-----|
|-----|
|2~~~~|
|2~~~~|
|0~~~~|

play Riff B X 4
Riff A x 1
End with Riff C

END!  Ivan/FetusShredder fetusshreder@msn.com
Добавлено: 13.09.2013
Другие материалы по этой песне:
  • Аккорды и текст

Страница создана 02.05.2012
http://primanota.ru/entombed/living-dead-chords.htm
Привет, Гость.
Предлагаем пройти революционный курс по гитаре.
Подарок от PrimaNota.Ru, забирай!