PrimaNota.ru - самый крупный в мире бесплатный архив песенных текстов, аккордов, табулатур и нот


Dokken - Maddest Hatter - текст песни, таба, бас-таба, видео

Регистрация Запомнить меня
Войти через:  Facebook Google Twitter Vk Yandex Mail.ru

Dokken - Maddest Hatter - текст песни, таба, бас-таба, видео

Печатать
Просмотров: 168
Artist:Dokken
Album:Erase The Slate
Tuning: Drop D (eBGDAD)

[H]=Harmonic
...=Palm Mute
X=Pick Scrape
~=vibrato
x=mute strings


e----------------------------------------------|
B----------------------------------------------|
G----------------------------------------------|
D----------------------------------------------|
A--X--X-----5-------6--------5-----------------|
D--------------8--5----8--5-----8--5---5--5-5--|
               ....    ....     ....

e----------------------------------------------|
B----------------------------------------------|
G-----------------------------8--8-------------|
D-----------------------------8--8-------------|
A--5--------6--------5-------------------------|
D-----8--5-----8--5-----8--5-------------------|
      ....     ....     ....

e----------------------------------------------|
B----------------------------------------------|
G----------------------------------------------|
D----------------------------------------------|
A--5--------6--------5-------------------------|
D-----8--5-----8--5-----8--5---5---5-5---------|
      ....     ....     ....
e----------------------------------------------|
B----------------------------------------------|
G-----------------------------8--8-------------|
D-----------------------------8--8-------------|
A--5--------6--------5-------------------------|
D-----8--5-----8--5-----8--5-------------------|
      ....     ....     ....

e----------------------------------------------|
B----------------------------------------------|
G----------------------------------------------|
D----------------------------------------------|
A--5--------6--------5-------------------------|
D-----8--5-----8--5------8--5--5-5-5-5-5-5-----|
      ....     ....      .................

e------------------------------------------------------|
B------------------------------------------------------|
G------------------------------------------------------|
D--3---------1------------0----------------------------|
A-----------------------------------1----------1---3~--|
D-----1--1--------1--1--------1--1------1--1-----------|
      ....        ....        ....      ....

e----------------------------------------------|
B----------------------------------------------|
G----------------------------------------------|
D----------------------------------------------|
A--5--------6--------5-------------------------|
D-----8--5-----8--5------8--5--5-5-5-5-5-5-----|
      ....     ....      .................

e-----------------------------------------------------|
B-----------------------------------------------------|
G-----------------------------------------------------|
D--3---------1------------0---------------------------|
A-----------------------------------1-----------1--3--|
D-----1--1--------1--1--------1--1------1--1----1--3--|
      ....        ....        ....      ....

e----------------------------------------------|
B----------------------------------------------|
G----------------------------------------------|
D----------------------------------------------|
A--5--------6--------5-------------------------|
D-----8--5-----8--5------8--5--5-5-5-5-5-5-----|
      ....     ....      .................

e------------------------------------------------------|
B------------------------------------------------------|
G------------------------------------------------------|
D--3---------1------------0----------------------------|
A-----------------------------------1----------1---3~--|
D-----1--1--------1--1--------1--1------1--1-----------|
      ....        ....        ....      ....

e-----------------------------------------------------|
B-----------------------------------------------------|
G-----------------------------------------------------|
D--3---------1------------0---------------------------|
A-----------------------------------1-----------1--3--|
D-----1--1--------1--1--------1--1------1--1----1--3--|
      ....        ....        ....      ....

e---------------------------------------------------------------------------------------|
B-----3--------3---------------3-------------3-----------------3---------------3--------|
G--------2--2-----2-0--------------0---0---------0------------------0---0----------0----|
D-------------------------1-----------------------------2-------------------------------|
A--0----------------------1-----------------------------2-------------------------------|
D--0----------------------1-----------------------------2-------------------------------|


e---------------------------|
B---------------------------|
G---------------------------|
D--3-----4--4-4-4-4-4-------|
A--3-----4--4-4-4-4-4-------|
D--3-----4--4-4-4-4-4-------|


e------------------------------------------------------|
B------------------------------------------------------|
G--------------------------------------------3--3--3---|
D---5--5-5-5-5-5-5-5---5--5--5--5----x--x----1--1--1---|
A---5--5-5-5-5-5-5-5---3--3--3--3----x--x----1--1--1---|
D---5--5-5-5-5-5-5-5-----------------x--x----1--1--1---|

e------------------------------------------------------|
B------------------------------------------------------|
G--------------------------------------------3--3--3---|
D---5--5-5-5-5-5-5-5---5--5--5--5----x--x----1--1--1---|
A---5--5-5-5-5-5-5-5---3--3--3--3----x--x----1--1--1---|
D---5--5-5-5-5-5-5-5-----------------x--x----1--1--1---|

e------------------------------------------------------|
B------------------------------------------------------|
G--------------------------------------------3--3--3---|
D---5--5-5-5-5-5-5-5---5--5--5--5----x--x----1--1--1---|
A---5--5-5-5-5-5-5-5---3--3--3--3----x--x----1--1--1---|
D---5--5-5-5-5-5-5-5-----------------x--x----1--1--1---|

e--------------------------------|
B--3----------3---------3--------|
G--2----------2---------3--------|
D-------0--0-----0--0------0--0--|
A-------....-----....------....--|
D--------------------------------|

e--------------------------------------|
B--3----------3---------3----------10--|
G--2----------2---------2----------10--|
D-------0--0-----0--0------0--0----10--|
A-------....-----....------....--------|
D--------------------------------------|

e----------------------------------------------|
B----------------------------------------------|
G----------------------------------------------|
D----------------------------------------------|
A--5--------6--------5-------------------------|
D-----8--5-----8--5-----8--5---5---5-5---------|
      ....     ....     ....
e----------------------------------------------|
B----------------------------------------------|
G-----------------------------8--8-------------|
D-----------------------------8--8-------------|
A--5--------6--------5-------------------------|
D-----8--5-----8--5-----8--5-------------------|
      ....     ....     ....

e----------------------------------------------|
B----------------------------------------------|
G----------------------------------------------|
D----------------------------------------------|
A--5--------6--------5-------------------------|
D-----8--5-----8--5-----8--5---5---5-5---------|
      ....     ....     ....
e----------------------------------------------|
B----------------------------------------------|
G-----------------------------8--8-------------|
D-----------------------------8--8-------------|
A--5--------6--------5-------------------------|
D-----8--5-----8--5-----8--5-------------------|
      ....     ....     ....


e----------------------------------------------|
B----------------------------------------------|
G----------------------------------------------|
D----------------------------------------------|
A--5--------6--------5-------------------------|
D-----8--5-----8--5------8--5--5-5-5-5-5-5-----|
      ....     ....      .................

e------------------------------------------------------|
B------------------------------------------------------|
G------------------------------------------------------|
D--3---------1------------0----------------------------|
A-----------------------------------1----------1---3~--|
D-----1--1--------1--1--------1--1------1--1-----------|
      ....        ....        ....      ....

e----------------------------------------------|
B----------------------------------------------|
G----------------------------------------------|
D----------------------------------------------|
A--5--------6--------5-------------------------|
D-----8--5-----8--5------8--5--5-5-5-5-5-5-----|
      ....     ....      .................

e-----------------------------------------------------|
B-----------------------------------------------------|
G-----------------------------------------------------|
D--3---------1------------0---------------------------|
A-----------------------------------1-----------1--3--|
D-----1--1--------1--1--------1--1------1--1----1--3--|
      ....        ....        ....      ....

e----------------------------------------------|
B----------------------------------------------|
G----------------------------------------------|
D----------------------------------------------|
A--5--------6--------5-------------------------|
D-----8--5-----8--5------8--5--5-5-5-5-5-5-----|
      ....     ....      .................

e------------------------------------------------------|
B------------------------------------------------------|
G------------------------------------------------------|
D--3---------1------------0----------------------------|
A-----------------------------------1----------1---3~--|
D-----1--1--------1--1--------1--1------1--1-----------|
      ....        ....        ....      ....

e----------------------------------------------|
B----------------------------------------------|
G----------------------------------------------|
D----------------------------------------------|
A--5--------6--------5-------------------------|
D-----8--5-----8--5------8--5--5-5-5-5-5-5-----|
      ....     ....      .................

e-----------------------------------------------------|
B-----------------------------------------------------|
G-----------------------------------------------------|
D--3---------1------------0---------------------------|
A-----------------------------------1-----------1--3--|
D-----1--1--------1--1--------1--1------1--1----1--3--|
      ....        ....        ....      ....

e---------------------------------------------------------------------------------------|
B-----3--------3---------------3-------------3-----------------3---------------3--------|
G--------2--2-----2-0--------------0---0---------0------------------0---0----------0----|
D-------------------------1-----------------------------2-------------------------------|
A--0----------------------1-----------------------------2-------------------------------|
D--0----------------------1-----------------------------2-------------------------------|


e---------------------------|
B---------------------------|
G---------------------------|
D--3-----4--4-4-4-4-4-------|
A--3-----4--4-4-4-4-4-------|
D--3-----4--4-4-4-4-4-------|


e------------------------------------------------------|
B------------------------------------------------------|
G--------------------------------------------3--3--3---|
D---5--5-5-5-5-5-5-5---5--5--5--5----x--x----1--1--1---|
A---5--5-5-5-5-5-5-5---3--3--3--3----x--x----1--1--1---|
D---5--5-5-5-5-5-5-5-----------------x--x----1--1--1---|

e------------------------------------------------------|
B------------------------------------------------------|
G--------------------------------------------3--3--3---|
D---5--5-5-5-5-5-5-5---5--5--5--5----x--x----1--1--1---|
A---5--5-5-5-5-5-5-5---3--3--3--3----x--x----1--1--1---|
D---5--5-5-5-5-5-5-5-----------------x--x----1--1--1---|

e------------------------------------------------------|
B------------------------------------------------------|
G--------------------------------------------3--3--3---|
D---5--5-5-5-5-5-5-5---5--5--5--5----x--x----1--1--1---|
A---5--5-5-5-5-5-5-5---3--3--3--3----x--x----1--1--1---|
D---5--5-5-5-5-5-5-5-----------------x--x----1--1--1---|

e--------------------------------|
B--3----------3---------3--------|
G--2----------2---------3--------|
D-------0--0-----0--0------0--0--|
A-------....-----....------....--|
D--------------------------------|

e--------------------------------------|
B--3----------3---------3----------10--|
G--2----------2---------2----------10--|
D-------0--0-----0--0------0--0----10--|
A--------------------------------------|
D--------------------------------------|


e--------------3----------------0---|
B----------6-----------------6------|
G------7-----------------5----------|
D--5-----------------5--------------|
A-----------------------------------|
D-----------------------------------|

e--------------3----------------0---|
B----------6-----------------6------|
G------7-----------------5----------|
D--5-----------------5--------------|
A-----------------------------------|
D-----------------------------------|

e--------------3----------------0---|
B----------6-----------------6------|
G------7-----------------5----------|
D--5-----------------5--------------|
A-----------------------------------|
D-----------------------------------|

e--------------3----------------0---|
B----------6-----------------6------|
G------7-----------------5----------|
D--5-----------------5--------------|
A-----------------------------------|
D-----------------------------------|

e------15------18--19--15------------------------------------15--13---------8---------------|
B--18------18-------------18~-18--------------------------------------11--6---6-----8-------|
G-------------------------------10-10-10-10-10-12-12--0-0-----------------------5-5---5--7~-|
D-----------------------------------------------------...-----------------------------------|
A-------------------------------------------------------------------------------------------|
D-------------------------------------------------------------------------------------------|

e-------------------------15--19-----------------------13~-----------------------------------------|
B-----------8~----15---------------14-----15--14--15-------------------------13-----------13--12~--|
G--5--7~-------------------------------0---------------------10--10--12--13------10--10------------|
D--------------------------------------------------------------------------------------------------|
A--------------------------------------------------------------------------------------------------|
D--------------------------------------------------------------------------------------------------|

notes played fast (fast part of the solo)
e------------------------------------------------13-15-16-13-11-13-15-16-15-19-15--19-15-13-15-19--|
B------------------------------------8-9-11-13-----------------------------------------------------|
G--8-10-8-7-8-10-8-10-12-10-8-7-8-10---------------------------------------------------------------|
D--------------------------------------------------------------------------------------------------|
A--------------------------------------------------------------------------------------------------|
D--------------------------------------------------------------------------------------------------|

e-15-13~----22-19-10-19-22-10-22~------20--20-----20~-------------------------------------------|
B--------------------------------------20-----20--20~------20--17--20--19---17-19-17------------|
G------------------------------------------------------------------------------------19--17--17-|
D-----------------------------------------------------------------------------------------------|
A-----------------------------------------------------------------------------------------------|
D-----------------------------------------------------------------------------------------------|

e--------------------------------------------------------------|
B----------15--13---13--12--10--------------15--17--15---------|
G----------x---x----x---x---x-----------------------------22~--|
D--19------12--10---10--9---7-----------------------------[H]--|
A--------------------------------------------------------------|
D--------------------------------------------------------------|


e------------------------------------------------------|
B------------------------------------------------------|
G--------------------------------------------3--3--3---|
D---5--5-5-5-5-5-5-5---5--5--5--5----x--x----1--1--1---|
A---5--5-5-5-5-5-5-5---3--3--3--3----x--x----1--1--1---|
D---5--5-5-5-5-5-5-5-----------------x--x----1--1--1---|

e------------------------------------------------------|
B------------------------------------------------------|
G--------------------------------------------3--3--3---|
D---5--5-5-5-5-5-5-5---5--5--5--5----x--x----1--1--1---|
A---5--5-5-5-5-5-5-5---3--3--3--3----x--x----1--1--1---|
D---5--5-5-5-5-5-5-5-----------------x--x----1--1--1---|

e------------------------------------------------------|
B------------------------------------------------------|
G--------------------------------------------3--3--3---|
D---5--5-5-5-5-5-5-5---5--5--5--5----x--x----1--1--1---|
A---5--5-5-5-5-5-5-5---3--3--3--3----x--x----1--1--1---|
D---5--5-5-5-5-5-5-5-----------------x--x----1--1--1---|


e--------------------------------|
B--3----------3---------3--------|
G--2----------2---------3--------|
D-------0--0-----0--0------0--0--|
A-------....-----....------....--|
D--------------------------------|

e---------------------------------------------|
B--3----------3---------3-----------6------10-|
G--2----------2---------2-----------7------10-|
D-------0--0-----0--0------0--0-----8------10-|
A-------....-----....------....---------------|
D---------------------------------------------|

e------------------------------------------------------|
B------------------------------------------------------|
G--------------------------------------------3--3--3---|
D---5--5-5-5-5-5-5-5---5--5--5--5----x--x----1--1--1---|
A---5--5-5-5-5-5-5-5---3--3--3--3----x--x----1--1--1---|
D---5--5-5-5-5-5-5-5-----------------x--x----1--1--1---|

e------------------------------------------------------|
B------------------------------------------------------|
G--------------------------------------------3--3--3---|
D---5--5-5-5-5-5-5-5---5--5--5--5----x--x----1--1--1---|
A---5--5-5-5-5-5-5-5---3--3--3--3----x--x----1--1--1---|
D---5--5-5-5-5-5-5-5-----------------x--x----1--1--1---|

e------------------------------------------------------|
B------------------------------------------------------|
G--------------------------------------------3--3--3---|
D---5--5-5-5-5-5-5-5---5--5--5--5----x--x----1--1--1---|
A---5--5-5-5-5-5-5-5---3--3--3--3----x--x----1--1--1---|
D---5--5-5-5-5-5-5-5-----------------x--x----1--1--1---|

e--------------------------------|
B--3----------3---------3--------|
G--2----------2---------3--------|
D-------0--0-----0--0------0--0--|
A-------....-----....------....--|
D--------------------------------|

e---------------------------------------------|
B--3----------3---------3-----------6------10-|
G--2----------2---------2-----------7------10-|
D-------0--0-----0--0------0--0-----8------10-|
A-------....-----....------....---------------|
D---------------------------------------------|

(the part that gets faster and faster over time)
e----------------------------------------------|
B----------------------------------------------|
G----------------------------------------------|
D----------------------------------------------|
A--5--------6--------5-------------------------|
D-----8--5-----8--5-----8--5---5---5-5---------|
      ....     ....     ....
e----------------------------------------------|
B----------------------------------------------|
G-----------------------------8--8-------------|
D-----------------------------8--8-------------|
A--5--------6--------5-------------------------|
D-----8--5-----8--5-----8--5-------------------|
      ....     ....     ....

------------------------------------------------|
B-----------------------------------------------|
G-----------------------------------------------|
D-----------------------------------------------|
A--5--------6--------5--------------------------|
D-----8--5-----8--5-----8--5---5---5-5----------|
      ....     ....     ....
e----------------------------------------------|
B----------------------------------------------|
G-----------------------------8--8-------------|
D-----------------------------8--8-------------|
A--5--------6--------5-------------------------|
D-----8--5-----8--5-----8--5-------------------|
      ....     ....     ....

e----------------------------------------------|
B----------------------------------------------|
G----------------------------------------------|
D----------------------------------------------|
A--5--------6--------5-------------------------|
D-----8--5-----8--5-----8--5---5---5-5---------|
      ....     ....     ....
e----------------------------------------------|
B----------------------------------------------|
G-----------------------------8--8-------------|
D-----------------------------8--8-------------|
A--5--------6--------5-------------------------|
D-----8--5-----8--5-----8--5-------------------|
      ....     ....     ....

-----------------------------------------------|
B----------------------------------------------|
G----------------------------------------------|
D----------------------------------------------|
A--5--------6--------5-------------------------|
D-----8--5-----8--5-----8--5---5---5-5---------|
      ....     ....     ....
e----------------------------------------------|
B----------------------------------------------|
G-----------------------------8--8-------------|
D-----------------------------8--8-------------|
A--5--------6--------5-------------------------|
D-----8--5-----8--5-----8--5-------------------|

e----------------------------------------------|
B----------------------------------------------|
G----------------------------------------------|
D----------------------------------------------|
A--5--------6--------5-------------------------|
D-----8--5-----8--5-----8--5---5---5-5---------|
      ....     ....     ....
e----------------------------------------------|
B----------------------------------------------|
G-----------------------------8--8-------------|
D-----------------------------8--8-------------|
A--5--------6--------5-------------------------|
D-----8--5-----8--5-----8--5-------------------|
      ....     ....     ....

e----------------------------------------------|
B----------------------------------------------|
G----------------------------------------------|
D----------------------------------------------|
A--5--------6--------5-------------------------|
D-----8--5-----8--5-----8--5---5---5-5---------|
      ....     ....     ....
e----------------------------------------------|
B----------------------------------------------|
G-----------------------------8--8-------------|
D-----------------------------8--8-------------|
A--5--------6--------5-------------------------|
D-----8--5-----8--5-----8--5-------------------|

e----------------------------------------------|
B----------------------------------------------|
G----------------------------------------------|
D----------------------------------------------|
A--5--------6--------5-------------------------|
D-----8--5-----8--5-----8--5---5---5-5---------|
      ....     ....     ....
e----------------------------------------------|
B----------------------------------------------|
G-----------------------------8--8-------------|
D-----------------------------8--8-------------|
A--5--------6--------5-------------------------|
D-----8--5-----8--5-----8--5-------------------|

e----------------------------------------------|
B----------------------------------------------|
G----------------------------------------------|
D----------------------------------------------|
A--5--------6--------5-------------------------|
D-----8--5-----8--5-----8--5---5---5-5---------|
      ....     ....     ....
e----------------------------------------------|
B----------------------------------------------|
G-----------------------------8--8-------------|
D-----------------------------8--8-------------|
A--5--------6--------5-------------------------|
D-----8--5-----8--5-----8--5-------------------|

e----------------------------------------------|
B----------------------------------------------|
G----------------------------------------------|
D----------------------------------------------|
A--5--------6--------5-------------------------|
D-----8--5-----8--5-----8--5---5---5-5---------|
      ....     ....     ....
e----------------------------------------------|
B----------------------------------------------|
G-----------------------------8--8-------------|
D-----------------------------8--8-------------|
A--5--------6--------5-------------------------|
D-----8--5-----8--5-----8--5-------------------|


e----------------------------------------------|
B----------------------------------------------|
G----------------------------------------------|
D----------------------------------------------|
A--5--------6--------5-------------------------|
D-----8--5-----8--5-----8--5---5---5-5---------|
      ....     ....     ....
e----------------------------------------------|
B----------------------------------------------|
G-----------------------------8--8-------------|
D-----------------------------8--8-------------|
A--5--------6--------5-------------------------|
D-----8--5-----8--5-----8--5-------------------|

e----------------------------------------------|
B----------------------------------------------|
G----------------------------------------------|
D----------------------------------------------|
A--5--------6--------5-------------------------|
D-----8--5-----8--5-----8--5---5---5-5---------|
      ....     ....     ....
e----------------------------------------------|
B----------------------------------------------|
G-----------------------------8--8-------------|
D-----------------------------8--8-------------|
A--5--------6--------5-------------------------|
D-----8--5-----8--5-----8--5-------------------|


e----------------------------------------------|
B----------------------------------------------|
G----------------------------------------------|
D----------------------------------------------|
A--5--------6--------5-------------------------|
D-----8--5-----8--5-----8--5---5---5-5---------|
      ....     ....     ....

e----------------------------------------------|
B----------------------------------------------|
G----------------------------------------------|
D--5-----5-------------------------------------|
A--5-----5-------------------------------------|
D--5-----5-------------------------------------|


This is my first guitar transcribtion (tab)
I would rate the solo a 3/5 the solo is somewhat
messed up but you can mess around with the notes
to see what sounds better for example (if theres
any extra notes)

Have fun jamming

FooFighters345,

mpero345@aim.com

copy to notepad to make it neater
Добавлено: 05.06.2012
Другие материалы по этой песне:

Страница создана 26.03.2012
http://primanota.ru/dokken/maddest-hatter-chords.htm
Привет, Гость.
Предлагаем пройти революционный курс по гитаре.
Подарок от PrimaNota.Ru, забирай!