PrimaNota.ru - самый крупный в мире бесплатный архив песенных текстов, аккордов, табулатур и нот


Dokken - The Hunter - текст песни, таба, видео

Регистрация Запомнить меня
Войти через:  Facebook Google Twitter Vk Yandex Mail.ru

Dokken - The Hunter - текст песни, таба, видео

Печатать
Просмотров: 279
Tuning: 1/2 step down
-------------------------------------------------------------------|
-------------------------------------------------------------------|
-------5/-7\-5-----------------5/-7\-5---------------------5/-7\-5-|
--\----3/-5\-3---7-7---3---5~--3/-5\-3---3---5-------------3/-5\-3-|
--\----3/-5\-3---5-5-1-1-3-3~--3/-5\-3---1-x-3--1h3p1------3/-5\-3-|
------------------------------------------------------{3}~---------|

--------------------------------------------------------------------|
---------------------1----------3h6p3------3p6h3------------1-------|
---------------------------5-0--------5b7--------{3}~---------------|
--7-7---3---5------3---------0----------------------------3---------|
--5-5-1-1-3-3--0-1-----1/3----------------------------0-1-----1/3-3-|
--------------------------------------------------------------------|

---|-------------------------|------------------------------|--------|
---|-6/-8\-6-----------------|*-----------------------------|--------|
-5-|-5/-7\-5-----------------|------3-------3-2---2---3---3-|--------|
-5-|-5/-7\-5-----------------|------3-------3-3---3---1-1-1-|--------|
---|-------------------------|*-----------------------------|--------|
---|-------------------------|--3-3---3-3-3-----3---1-------|-3-3----|

----------------------|-----------------------------------|-----------|
---------------------*|--------------6b7-3h6p3------------|-----------|
-3-------5/7\5--------|----------3--------------5b6--r----|-----------|
-3-------3/5\3---5----|---1-1-1---------------------------|-----------|
---------------3-3-3~*|-----------------------------------|-{5}~-{3}~-|
---3-3-3--------------|-----------------------------------|-----------|

-----|----------------------------------------------|-----------------|
-----|-----------------------------------11---------|-----------------|
-----|-14b15----14b15--r12h14h12\10-12--r---12b14--r|--0--------------|
-----|----------------------------------------------|--0---------3----|
--2--|----------------------------------------------|------------3----|
-----|--------------------------------------------- |----3-5-6--------|

-----------------------------|--------------------------------------|
-----------------------------|--------------------------------------|
-----------------------3-3-3-|--0-----------------------------------|
------3---------0-1-1----0-3-|--0---------3-----3-------8-8-7-7-5-5-|
----3----3---3---------------|----------3-----3---3-----6-6-5-5-3-3-|
--5------1-------------------|----3-5-6-----5-----1--0--------------|

--------------------------------------------------|------------------|
--------------------------------------------------|------------------|
-5/-7\-5----------------5/-5\-7-------------------|-5/-7\-5----------|
-3/-5\-3---7-7---3---5--3/-3\-5--3---5------------|-3/-5\-3--7-7---3-|
-3/-5\-3---5-5-1-1-3-3--3/-3\-5--1-x-3--1h3h1-----|-3/-5\-3--5-5-1-1-|
----------------------------------------------{3}~|------------------|

--------------------------------------------------|---20b22---20~---|
------------1----------------------------1--------|---17------17~---|
--------------------5-0--{3}~------------------5--|-----------------|
---5------3---------5-0----------------3-------5--|-----------------|
-3-3--0-1-----1-3-3-----------12\--0-1-----1-3----|-----------------|
--------------------------------------------------|-----------------|

----------------------------------|-------------------------------|
----------------------------------|*------------------------------|
--------------------0-----------0-|-------------------------------|
----5-5/-7---3---5--0--7--3--5--0-|--5-5/-7-----7-----7-----7-3---|
----3-3/-5---1---3-----5--1--3----|*-3-3/-5-5-5-5-5-5-5-5-5-5-1-1-|
----------------------------------|-------------------------------|

---------------------------------|----------------|-------------|
---------------------------------|---------------*|-------------|
---------------------------------|-0-0-2-2--------|-------------|
---3-----3-----3-5-----5-----5-5-|-0-0-2-2-3-3-5--|-8-8-7\5-5\3-|
-1-1-1-1-1-1-1-1-3-3-3-3-3-3-3-3-|-----0-0-1-1-3-*|-6-6-5\3-3\1-|
---------------------------------|----------------|-------------|

-----------------------------------------------------------------------|
--------------------------------6-5h6h5---5b6--5~-11-10h11h10----10b11-|
----------------------------------------7---------------------12-------|
-----------------------------------------------------------------------|
-----------------------------------------------------------------------|
-----------------------------------------------------------------------|

-------------10-12-13~-15-17~-18b20---r--(18)p15----15-17h18h17----17~-|
---{10}---10-------------------------------------15-------------15-----|
-----------------------------------------------------------------------|
-----------------------------------------------------------------------|
-----------------------------------------------------------------------|
-----------------------------------------------------------------------|

-------------------------------------------------|-13-12-10-10h12h10-|
-------------------------------------------------|-------------------|
---14~-14-15-12b14--r-12h14h12\10-12b14--r10-12~-|-------------------|
-------------------------------------------------|-------------------|
-------------------------------------------------|-------------------|
-------------------------------------------------|-------------------|

----10-------------|-----------------------|-12b13---12-10~-10-12----|
-13----13----------|-10h13h10----10--------|----------------------13-|
----------12b14----|----------12----12-10~-|-------------------------|
-------------------|-----------------------|-------------------------|
-------------------|-----------------------|-------------------------|
-------------------|-----------------------|-------------------------|

-10-------------------------------------------------------------------|
----11-13-10-------------------------------------------------11h13----|
-------------12b14--r----10-9-------10-9-------9h10h12-10h12-------10-|
----------------------10------10-10------10-10------------------------|
----------------------------------------------------------------------|
----------------------------------------------------------------------|

-------------------|--------------13--------15~-13h15h13-15b17--r15b2-|
----10-------------|----15~-13h15-----13h15---------------------------|
-12----12-10-9-----|--------------------------------------------------|
---------------12~-|-12-----------------------------------------------|
-------------------|--------------------------------------------------|
-------------------|--------------------------------------------------|
Добавлено: 21.02.2012
Другие материалы по этой песне:

Страница создана 21.02.2012
http://primanota.ru/dokken/the-hunter-chords.htm
Привет, Гость.
Предлагаем пройти революционный курс по гитаре.
Подарок от PrimaNota.Ru, забирай!