PrimaNota.ru - самый крупный в мире бесплатный архив песенных текстов, аккордов, табулатур и нот


Dokken - Prisoner - текст песни, таба, видео

Регистрация Запомнить меня
Войти через:  Facebook Google Twitter Vk Yandex Mail.ru

Dokken - Prisoner - текст песни, таба, видео

Печатать
Просмотров: 165
Song:Prisoner
Artist:Dokken
Written By:George Lynch, Jeff Pilson, Wild Mick Brown
Album:Back For The Attack
Tuning:Standard

Chords:
E5-02245x                  
E5II-xx245x

Intro
                Em  G       D
4/4
Gtr I
|-------------|--------------------|
|-------------|--------------3-----|
|-------------|------0-------2-----|
|-------------|-2----0-------0-----|
|--------/10\-|-2------------------|
|--------/10\-|-0----3-------------|
|
| Gtr II
|-------------|-----19------17-----|
|-------------|-----22b24---20b22--|
|-------------|--------------------|
|-------------|--------------------|
|-------------|--------------------|
|-------------|--------------------|
|
| Gtr III
|-------------|-----15------14-----|
|-------------|-----18b20---17b19--|
|-------------|--------------------|
|-------------|--------------------|
|-------------|--------------------|
|-------------|--------------------|


                    Em  G       D
|-----------------|--------------------|-------------|
|--(3)------------|--------------3-----|--(3)--------|
|--(2)------------|------0-------2-----|--(2)--------|
|--(0)------------|-2----0-------0-----|--(0)--------|
|-----------------|-2------------------|-------------|
|-----------------|-0----3-------------|-------------|
|
|-(17)------------|-----15------14-----|-(14)--------|
|-(20)pb22--------|-----18b20---17b19--|-(17)pb19----|
|-----------------|--------------------|-------------|
|-----------------|--------------------|-------------|
|-----------------|--------------------|-------------|
|-----------------|--------------------|-------------|
|
|-(14)------------|-----12------10-----|-(10)--------|
|-(17)pb19--------|-----15b17---13b15--|-(13)pb15----|
|-----------------|--------------------|-------------|
|-----------------|--------------------|-------------|
|-----------------|--------------------|-------------|
|-----------------|--------------------|-------------|


  Em  G       D
|--------------------|---------------------|
|--------------3-----|--(3)----------------|
|------0-------2-----|--(2)----------------|
|-2----0-------0-----|--(0)----------------|
|-2------------------|---------------------|
|-0----3-------------|---------------------|
|
|-----19------17-----|-(17)----------------|
|-----22b24---20b22--|-(20)pb22----------7h|
|--------------------|-----------------9---|
|--------------------|--------------/9-----|
|--------------------|---------------------|
|--------------------|---------------------|
|
|-----15------14-----|-(14)----------------|
|-----18b20---17b19--|-(17)pb19------------|
|--------------------|---------------------|
|--------------------|---------------------|
|--------------------|---------------------|
|--------------------|---------------------|


  Em    G       D
|-------------------|-------------------------|
|----------------3--|--(3)--------------------|
|---------0------2--|--(2)--------------------|
|-2-------0------0--|--(0)--------------------|
|-2-----------------|-------------------------|
|-0-------3---------|-------------------------|
|
|-------------------|-------------------------|
|-8p7---/12p=10-10--|-(10)---8h10p8S7-----5h7-|
|-----9-------------|-----------------7-------|
|-------------------|-------------------------|
|-------------------|-------------------------|
|-------------------|-------------------------|
|
|-------------------|-------------------------|
|-------------------|-------------------------|
|-------------------|-------------------------|
|-------------------|-------------------------|
|-------------------|-------------------------|
|-------------------|-------------------------|


|-------------|--------|
|-------------|--------|
|-------------|--------|
|-2-----------|-(2)----|
|-2-----------|-(2)----|
|-0-----------|-(0)----|
|
|       ~~~~~~~~~~~~
|-------------|--------|
|-5----(5)----|-(5)----|
|-------------|--------|
|-------------|--------|
|-------------|--------|
|-------------|--------|


   Verse
    Em         G    D           E5         E5II D
||-----------|----------------|----------|-----------------|
||o----------|------3----(3)\-|----------|-5----3----(3)\--|
||-----------|-0--x-2----(2)\-|----------|-4--x-2----(2)\--|
||--2--------|-0--x-0----(0)\-|-2--------|-2--x-0----(0)\--|
||o-2--------|----------------|-2--------|-----------------|
||--0--------|----------------|-0--------|-----------------|


  Em         G    D           C
|----------|----------------|-------------|
|----------|------3----(3)\-|-------------|
|----------|-0--x-2----(2)\-|-5----5------|
|-2--------|-0--x-0----(0)\-|-5----5------|
|-2--------|----------------|-3----3------|
|-0--------|----------------|---------3-2-|


 Pre-Chorus
  Em      G         E5II  D         Em      G         E5II  D
|-----------------|---------------|-----------------|---------------|
|-----------------|-5-----3----3--|-----------------|-5-----3----3--|
|---------0-------|-4-----2----2--|---------0-------|-4-----2----2--|
|-2-------0-------|-2-----0----0--|-2-------0-------|-2-----0----0--|
|-2---------------|---------------|-2---------------|---------------|
|-0-0-0-0---0-0-0-|---0-0----0----|-0-0-0-0---0-0-0-|---0-0----0----|


  Em         G              D            B
|----------|--------------|------------|----------------|
|----------|-------3---3--|-3----------|----------------|
|----------|-----0-0---0--|-2----------|-4--------------|
|-2--------|---0---0---0--|-0----------|-4--------------|
|-2--------|--------------|--------3-3-|-2--2-2-2-2-2-2-|
|-0--------|-3-----3---3--|------------|----------------|


 Chorus
  Em   C         G    D         Em   C   D
|--------------|--------------|--------------|-----------------|
|--------------|--------------|--------------|-----------------|
|-9--x-5-------|------7---x-x-|-9--x-5---7-7-|-(7)-----7---7---|
|-9--x-5---x-x-|-5--x-7---x-x-|-9--x-5---7-7-|-(7)---5---4---4-|
|-7----3---x-x-|-5--x-5-------|-7----3---5-5-|-(5)-------------|
|--------------|-3------------|--------------|-----------------|


  E5IID          G   D            C       D
|--------------|----------------|----------------|
|-5---3---(3)--|-----3---(3)-3\-|----------------|
|-4---2---(2)--|-0---2---(2)-2\-|-5-------7---7--|
|-2---0---(0)--|-0---0---(0)-0\-|---5-----7---7--|
|--------------|----------------|-----3-0-5-5-5--|
|--------------|-3--------------|----------------|


  Em  C       D
|--------------------|-----------------|
|--------------3-----|--(3)------------|
|------0-------2-----|--(2)------------|
|-2----0-------0-----|--(0)------------|
|-2------------------|-----------------|
|-0----3-------------|-----------------|
|
| Gtr II
|-----19------17-----|-(17)------------|
|-----22b24---20b22--|-(20)pb22--------|
|--------------------|-----------------|
|--------------------|-----------------|
|--------------------|-----------------|
|--------------------|-----------------|
|
| Gtr III
|-----15------14-----|-(14)------------|
|-----18b20---17b19--|-(17)pb19--------|
|--------------------|-----------------|
|--------------------|-----------------|
|--------------------|-----------------|
|--------------------|-----------------|


  Em  G       D
|--------------------|----------------------|
|--------------3-----|--(3)-----------------|
|------0-------2-----|--(2)---------7---7---|
|-2----0-------0-----|--(0)-------5---4---4-|
|-2------------------|----------------------|
|-0----3-------------|----------------------|
|
|-----15------14-----|-(14)-----------------|
|-----18b20---17b19--|-(17)pb19-------------|
|--------------------|----------------------|
|--------------------|----------------------|
|--------------------|----------------------|
|--------------------|----------------------|
|
|-----12------10-----|-(10)-----------------|
|-----15b17---13b15--|-(13)pb15-------------|
|--------------------|----------------------|
|--------------------|----------------------|
|--------------------|----------------------|
|--------------------|----------------------|


                                 1.
  E5IID          G   D            C       D
|--------------|----------------|----------------|
|-5---3---(3)--|-----3---(3)-3\-|----------------|
|-4---2---(2)--|-0---2---(2)-2\-|-5-------7---7--|
|-2---0---(0)--|-0---0---(0)-0\-|---5-----7---7--|
|--------------|----------------|-----3-0-5-5-5--|
|--------------|-3--------------|----------------|


  Em  G       D                          Em  G       D
|--------------------|-----------------|--------------------|------------||
|--------------3-----|--(3)------------|--------------3-----|--(3)------o||
|------0-------2-----|--(2)------------|------0-------2-----|--(2)-------||
|-2----0-------0-----|--(0)------------|-2----0-------0-----|--(0)-------||
|-2------------------|-----------------|-2------------------|-----------o||
|-0----3-------------|-----------------|-0----3-------------|------------||
|
| Gtr II
|-----19------17-----|-(17)------------|-----15------14-----|-(14)-------||
|-----22b24---20b22--|-(20)pb22--------|-----18b20---17b19--|-(17)pb19--o||
|--------------------|-----------------|--------------------|------------||
|--------------------|-----------------|--------------------|------------||
|--------------------|-----------------|--------------------|-----------o||
|--------------------|-----------------|--------------------|------------||
|
| Gtr III
|-----15------14-----|-(14)------------|-----12------10-----|-(10)-------||
|-----18b20---17b19--|-(17)pb19--------|-----15b17---13b15--|-(13)pb15--o||
|--------------------|-----------------|--------------------|------------||
|--------------------|-----------------|--------------------|------------||
|--------------------|-----------------|--------------------|-----------o||
|--------------------|-----------------|--------------------|------------||


 Interlude
  2.
  C             B                          Em
|-------------|-----------------|----------------|-----------------|
|-------------|-----------------|----------------|-----------------|
|-5-5-5-----7S|=4-----4-----4---|-------4--------|---------9---9---|
|-5-5-5-----7S|=4-----4-----4---|-------4--------|---------9---9---|
|-3-3-3-----5S|=2-2-2-2-2-2-2-2-|-2-2-2-2--------|---------7---7---|
|-------------|-----------------|----------0-3-2-|-3-2-0-0-0---0---|


        Em  D    C                 A
|--------------|-----------------|-------------------|
|--------------|-----------------|-------------------|
|-------9---7--|-5-----------5---|-2-------------2---|
|-------9---7--|-5-----------5---|-2-------------2---|
|-------7---5--|-3-3-3-3-3-3-3-3-|-0-0-0-0-0-0---0-0-|
|-3-2-0-0------|-----------------|-------------------|
|
| Gtr IV
|--------------|-----------------|-------------/22---|
|--------------|-----------------|-------------------|
|--------------|-----------------|-------------------|
|--------------|-----------------|-------------------|
|--------------|-----------------|-------------------|
|--------------|-----------------|-------------------|


  D
|------------------------------------------------------------------|
|------------------------------------------------------------------|
|----------------------7-------------------------7-----------------|
|----------------------7-------------------------7-----------------|
|---5------5-----5-----5-------5--------5--------5-------5---------|
|------------------------------------------------------------------|
|
|-(22)-22-20-19----------------------------------------------------|
|---------------22-20-19-19-20---19S17-17-19-17S15-15-17---15S13---|
|------------------------------------------------------------------|
|------------------------------------------------------------------|
|------------------------------------------------------------------|
|------------------------------------------------------------------|


 Guitar Solo
  B
|--------------------------------------------------------|
|--------------------------------------------------------|
|--4-------------------------4--------------------4------|
|--4-------------------------4--------------------4------|
|--2--------2-------2--------2-------2------2-----2----2-|
|--------------------------------------------------------|
|
|--------------------------------------------------------|
|-13-15-13S12-12-13---12S10-10-12-10S8-8-10---8S7-7tr8---|
|--------------------------------------------------------|
|--------------------------------------------------------|
|--------------------------------------------------------|
|--------------------------------------------------------|


  Em                       G         D                  Em
|------------------------|---------------------------|---------------------|
|------------------------|-----------3---------------|---------------------|
|------------------------|--0--------2---------------|---------------------|
|---2--------------------|--0--------0---------------|--2------------------|
|---2--------------------|---------------------------|--2------------------|
|---0--------------------|--3------------------------|--0------------------|
|
|                      PM         ~~
|------------------------|---------------------------|---------------------|
|------------------------|-12s10-10---12-13-12-(12)--|(12)-(12)------------|
|-/12----(12)-[12]h14-14-|---------------------------|---------/12-14S16-14|
|------------------------|---------------------------|---------------------|
|------------------------|---------------------------|---------------------|
|------------------------|---------------------------|---------------------|

  G              D          Em
|-------------------------|--------------------------|
|----------------3--------|--------------------------|
|--0-------------2--------|--------------------------|
|--0-------------0--------|--2-----------------------|
|-------------------------|--2-----------------------|
|--3----------------------|--0-----------------------|
|
|                    ~~~~~~~~~~~~~
|-------------------------|--------------14-15-14----|
|-------------------------|-15b17----/17----------17-|
|-12-12-14----------------|--------------------------|
|----------14S12---(12)---|--------------------------|
|-------------------------|--------------------------|
|-------------------------|--------------------------|


  G      D              C
|---------------------|----------------------|
|---------3-----------|----------------------|
|---0-----2-----------|---5------------------|
|---0-----0-----------|---5------------------|
|---------------------|---3------------------|
|---3-----------------|----------------------|
|
|   ~~~                                 ~~
|-/19----19b20r=19-17-|-\15-17-(17)S19-------|
|---------------------|----------------20----|
|---------------------|----------------------|
|---------------------|----------------------|
|---------------------|----------------------|
|---------------------|----------------------|


  Em
|---------------------------------------------------------|
|---------------------------------------------------------|
|---------------------------------------------------------|
|-2-------------------------------------------------------|
|-2-------------------------------------------------------|
|-0-------------------------------------------------------|
|
|-0-0-2-3-2-0-0-3-5-3-0-0-5-7-5-0-0-7-8-7-0-0-8-10-8-0-0--|
|---------------------------------------------------------|
|---------------------------------------------------------|
|---------------------------------------------------------|
|---------------------------------------------------------|
|---------------------------------------------------------|


  G                             D
|-----------------------------------------------------|
|-------------------------------3---------------------|
|--0----------------------------2---------------------|
|--0----------------------------0---------------------|
|-----------------------------------------------------|
|--3--------------------------------------------------|
|
|-10-12-10-0-0-8-10-8-0-0-7-8-7-0-0-5-7-5-0-0-3-5-3-0-|
|-----------------------------------------------------|
|-----------------------------------------------------|
|-----------------------------------------------------|
|-----------------------------------------------------|
|-----------------------------------------------------|


  Em                G          D
|-----------------|-------------------|
|-----------------|-------------3-----|
|-----------------|-0-----------2-----|
|-2---------------|-0-----------0-----|
|-2---------------|-------------------|
|-0---------------|-3-----------------|
|
| ~~~~~~~~~         ~           ~~~
|-3----(3)----5---|-------------------|
|----------/5---5-|-8--5h8p5S3-(3)----|
|-----------------|-------------------|
|-----------------|-------------------|
|-----------------|-------------------|
|-----------------|-------------------|


  Em
|---------------------------------------------|
|---------------------------------------------|
|---------------------------------------------|
|---2-----------------------------------------|
|---2-----------------------------------------|
|---0-----------------------------------------|
|
|                                       ~~~~
|----------------------------------15-(15)----|
|-/17-15p13p12------------------12------------|
|--------------12-14-12-(12)-12---------------|
|---------------------------------------------|
|---------------------------------------------|
|---------------------------------------------|


  G                             D
|--------------------------------------------------------|
|--------------------------------3-----------------------|
|--0-----------------------------2-----------------------|
|--0-----------------------------0-----------------------|
|--------------------------------------------------------|
|--3-----------------------------------------------------|
|
|-17p15----------15p14-----------------------------------|
|-------17p12h13-------17p12h13-15p13S12----13p12S10-----|
|----------------------------------------14----------12--|
|--------------------------------------------------------|
|--------------------------------------------------------|
|--------------------------------------------------------|


  C
|------------------------------------------------|------------------------|
|------------------------------------------------|------------------------|
|--5---------------------------------------------|-5--------5--------5----|
|--5---------------------------------------------|-5--------5--------5----|
|--3-----------3-----3-----3---3-----3-----3-----|-3-3---3--3--3--3--3--3-|
|------------------------------------------------|------------------------|
|
|                                                  Gtr II
|------------------------------------------------|---------------17-19-20-|
|-10p8p7h8---------------------------------------|-----/17-19-20----------|
|----------9p7-5h7p5-4h5p4---5p4-----------------|------------------------|
|--------------------------------7p5p4---------5-|------------------------|
|--------------------------------------7p5p4S3---|------------------------|
|------------------------------------------------|------------------------|
|
|                                                  Gtr III
|------------------------------------------------|------------------------|
|------------------------------------------------|---------------15-17-18-|
|------------------------------------------------|-----/14-16-17----------|
|------------------------------------------------|------------------------|
|------------------------------------------------|------------------------|
|------------------------------------------------|------------------------|


 Breakdown
  Em          G              D
|-----------|--------------|----------------|
|-----------|--------------|-3--------------|
|-----------|-----0-0---0--|-2--------------|
|--2--------|---0---0---0--|-0--0-0-0-0-0-0-|
|--2--------|--------------|----------------|
|--0--------|-3-----3---3--|----------------|
|
|  ~~
|-19--------|--------------|----------------|
|-----------|--------------|----------------|
|-----------|--------------|----------------|
|-----------|--------------|----------------|
|-----------|--------------|----------------|
|-----------|--------------|----------------|
|
|  ~~
|-----------|--------------|----------------|
|-17--------|--------------|----------------|
|-----------|--------------|----------------|
|-----------|--------------|----------------|
|-----------|--------------|----------------|
|-----------|--------------|----------------|


                           Em
|------------------------|-------|
|-3--------3--------3----|-------|
|-2--------2--------2----|-------|
|-0-0---0--0--0--0--0--0-|--2----|
|------------------------|--2----|
|------------------------|--0----|
|
|                           ~~
|---------------17-19-20-|-19----|
|-----/17-19-20----------|-------|
|------------------------|-------|
|------------------------|-------|
|------------------------|-------|
|------------------------|-------|
|
|                           ~~
|------------------------|-------|
|---------------15-17-18-|-17----|
|-----/14-16-17----------|-------|
|------------------------|-------|
|------------------------|-------|
|------------------------|-------|


  G              D            B
|--------------|------------|----------------|-----------------|
|-------3---3--|-3----------|----------------|-----------------|
|-----0-0---0--|-2----------|-4--------------|-4-----4-----4---|
|---0---0---0--|-0----------|-4--------------|-4-----4-----4---|
|--------------|--------3-3-|-2--2-2-2-2-2-2-|-2-2-2-2-2-2-2-2-|
|-3-----3---3--|------------|----------------|-----------------|


  Em   C         G    D         Em   C   D
|--------------|--------------|--------------|-----------------|
|--------------|--------------|--------------|-----------------|
|-9--x-5-------|------7---x-x-|-9--x-5---7-7-|-(7)-----7---7---|
|-9--x-5---x-x-|-5--x-7---x-x-|-9--x-5---7-7-|-(7)---5---4---4-|
|-7----3---x-x-|-5--x-5-------|-7----3---5-5-|-(5)-------------|
|--------------|-3------------|--------------|-----------------|


 Chorus
  E5IID          G   D            C       D
                                    PM--|
|--------------|----------------|----------------|
|-5---3---(3)--|-----3---(3)-3\-|----------------|
|-4---2---(2)--|-0---2---(2)-2\-|-5-------7---7--|
|-2---0---(0)--|-0---0---(0)-0\-|---5-----7---7--|
|--------------|----------------|-----3-0-5-5-5--|
|--------------|-3--------------|----------------|


  Em  G       D
|--------------------|-----------------|
|--------------3-----|--(3)------------|
|------0-------2-----|--(2)------------|
|-2----0-------0-----|--(0)------------|
|-2------------------|-----------------|
|-0----3-------------|-----------------|
|
| Gtr II
|-----19------17-----|-(17)------------|
|-----22b24---20b22--|-(20)pb22--------|
|--------------------|-----------------|
|--------------------|-----------------|
|--------------------|-----------------|
|--------------------|-----------------|
|
| Gtr III
|-----15------14-----|-(14)------------|
|-----18b20---17b19--|-(17)pb19--------|
|--------------------|-----------------|
|--------------------|-----------------|
|--------------------|-----------------|
|--------------------|-----------------|


  Em  G       D
|--------------------|----------------------|
|--------------3-----|--(3)-----------------|
|------0-------2-----|--(2)---------7---7---|
|-2----0-------0-----|--(0)-------5---4---4-|
|-2------------------|----------------------|
|-0----3-------------|----------------------|
|
|-----15------14-----|-(14)-----------------|
|-----18b20---17b19--|-(17)pb19-------------|
|--------------------|----------------------|
|--------------------|----------------------|
|--------------------|----------------------|
|--------------------|----------------------|
|
|-----12------10-----|-(10)-----------------|
|-----15b17---13b15--|-(13)pb15-------------|
|--------------------|----------------------|
|--------------------|----------------------|
|--------------------|----------------------|
|--------------------|----------------------|


  E5  D          G   D            G       D
|--------------|----------------|----------------|
|-5---3---(3)--|-----3---(3)-3\-|----------------|
|-4---2---(2)--|-0---2---(2)-2\-|-5-------7---7--|
|-2---0---(0)--|-0---0---(0)-0\-|---5-----7---7--|
|-2------------|----------------|-----3-0-5-5-5--|
|-0------------|-3--------------|----------------|


  Em  G       D
|--------------------|-----------------|
|--------------3-----|--(3)------------|
|------0-------2-----|--(2)------------|
|-2----0-------0-----|--(0)------------|
|-2------------------|-----------------|
|-0----3-------------|-----------------|
|
| Gtr II
|-----19------17-----|-(17)------------|
|-----22b24---20b22--|-(20)pb22--------|
|--------------------|-----------------|
|--------------------|-----------------|
|--------------------|-----------------|
|--------------------|-----------------|
|
| Gtr III
|-----15------14-----|-(14)------------|
|-----18b20---17b19--|-(17)pb19--------|
|--------------------|-----------------|
|--------------------|-----------------|
|--------------------|-----------------|
|--------------------|-----------------|


  Em  G       D
|--------------------|----------------------|
|--------------3-----|--(3)-----------------|
|------0-------2-----|--(2)---------7---7---|
|-2----0-------0-----|--(0)-------5---4---4-|
|-2------------------|----------------------|
|-0----3-------------|----------------------|
|
|-----15------14-----|-(14)-----------------|
|-----18b20---17b19--|-(17)pb19-------------|
|--------------------|----------------------|
|--------------------|----------------------|
|--------------------|----------------------|
|--------------------|----------------------|
|
|-----12------10-----|-(10)-----------------|
|-----15b17---13b15--|-(13)pb15-------------|
|--------------------|----------------------|
|--------------------|----------------------|
|--------------------|----------------------|
|--------------------|----------------------|


  Em  G       D
|--------------------|-----------------|
|--------------3-----|--(3)------------|
|------0-------2-----|--(2)------------|
|-2----0-------0-----|--(0)------------|
|-2------------------|-----------------|
|-0----3-------------|-----------------|
|
| Gtr II
|-----19------17-----|-(17)------------|
|-----22b24---20b22--|-(20)pb22--------|
|--------------------|-----------------|
|--------------------|-----------------|
|--------------------|-----------------|
|--------------------|-----------------|
|
| Gtr III
|-----15------14-----|-(14)------------|
|-----18b20---17b19--|-(17)pb19--------|
|--------------------|-----------------|
|--------------------|-----------------|
|--------------------|-----------------|
|--------------------|-----------------|


  Em  G       D
|--------------------|----------------------|
|--------------3-----|--(3)-----------------|
|------0-------2-----|--(2)---------7---7---|
|-2----0-------0-----|--(0)-------5---4---4-|
|-2------------------|----------------------|
|-0----3-------------|----------------------|
|
|-----15------14-----|-(14)-----------------|
|-----18b20---17b19--|-(17)pb19-------------|
|--------------------|----------------------|
|--------------------|----------------------|
|--------------------|----------------------|
|--------------------|----------------------|
|
|-----12------10-----|-(10)-----------------|
|-----15b17---13b15--|-(13)pb15-------------|
|--------------------|----------------------|
|--------------------|----------------------|
|--------------------|----------------------|
|--------------------|----------------------|


 Out-Chorus
  Em    G            D
|--------15----------14-----|-(14)---------------------------|
|--------18b20-------17b19--|-(17)pb19-----------------------|
|---------0-----------2-----|--(2)---------------------------|
|---2-----0-----------0-----|--(0)---------------------------|
|---2-----------------------|--------------------------------|
|---0-----3-----------------|--------------------------------|
|
| Gtr II
|--------19----------17-----|-(17)---------------------------|
|--------22b24-------20b22--|-(20)pb22-----------------------|
|---------------------------|--------------------------------|
|---------------------------|--------------------------------|
|---------------------------|--------------------------------|
|---------------------------|--------------------------------|
|
| Gtr IV
|                     ~~~~~~~~~~~~~~~~~
|---------------------------|--------------------14b15-------|
|---------------------------|-----------12-13-12----------10-|
|--------------------19-----|-(19)---------------------------|
|-------[17]----[17]--------|--------------------------------|
|-/19-----------------------|--------------------------------|
|---------------------------|--------------------------------|


  Em            G                 D
|---------------12----------------10-----|-(10)--------------------|
|---------------15b17-------------13b15--|-(13)pb15----------------|
|----------------0-----------------2-----|--(2)--------------------|
|--2-------------0-----------------0-----|--(0)--------------------|
|--2-------------------------------------|-------------------------|
|--0-------------3-----------------------|-------------------------|
|
|---------------15----------------14-----|-(14)--------------------|
|---------------18b20-------------17b19--|-(17)pb19----------------|
|----------------------------------------|-------------------------|
|----------------------------------------|-------------------------|
|----------------------------------------|-------------------------|
|----------------------------------------|-------------------------|
|
|                                  ~~~~~~~~~~~~~~~~~
|----------------------------------------|-------------------------|
|-12tr13---------------------------------|-------------------------|
|---------16p14p12----12h14b16-12h14-----|-(14)--------------------|
|----------------------------------------|-------------------------|
|----------------------------------------|-------------14-12-------|
|----------------------------------------|-------------------12-7\-|


  Em       G           D
|----------15----------14-----|-(14)-----------------------------|
|----------18b20-------17b19--|-(17)pb19-------------------------|
|-----------0-----------2-----|--(2)-----------------------------|
|--2--------0-----------0-----|--(0)-----------------------------|
|--2--------------------------|----------------------------------|
|--0--------3-----------------|----------------------------------|
|
| Gtr II
|----------19----------17-----|-(17)-----------------------------|
|----------22b24-------20b22--|-(20)pb22-------------------------|
|-----------------------------|----------------------------------|
|-----------------------------|----------------------------------|
|-----------------------------|----------------------------------|
|-----------------------------|----------------------------------|
|
|                                         ~~
|-----------------------------|--------------------------14-(14)-|
|-15h17-17--------------------|--15----------------15-17---------|
|----------16----14-12-14-----|----------14----/16---------------|
|-----------------------------|----------------------------------|
|-----------------------------|----------------------------------|
|-----------------------------|----------------------------------|


  Em                               G      
|----------------------------------12----|
|----------------------------------15b17-|
|-----------------------------------0----|
|--2--------------------------------0----|
|--2-------------------------------------|
|--0--------------------------------3----|
|
|----------------------------------15----|
|----------------------------------18b20-|
|----------------------------------------|
|----------------------------------------|
|----------------------------------------|
|----------------------------------------|
|
|-14h15p14h15p14----14h15p14h15p14-------|
|----------------17----------------------|
|----------------------------------------|
|----------------------------------------|
|----------------------------------------|
|----------------------------------------|

                             D
|------------------------------10----------------|
|------------------------------13b15-------------|
|-------------------------------2----------------|
|-------------------------------0----------------|
|------------------------------------------------|
|------------------------------------------------|
|
|------------------------------14----------------|
|------------------------------17b19-------------|
|------------------------------------------------|
|------------------------------------------------|
|------------------------------------------------|
|------------------------------------------------|
|
|---14h15p14h15p14----14h15p14h15p===14----14----|
|17----------------17-------------------17----15-|
|------------------------------------------------|
|------------------------------------------------|
|------------------------------------------------|
|------------------------------------------------|


|-(10)-------------------|
|-(13)pb15---------------|
|--(2)-------------------|
|--(0)-------------------|
|------------------------|
|------------------------|
|
|-(14)-------------------|
|-(17)pb19---------------|
|------------------------|
|------------------------|
|------------------------|
|------------------------|
|
|------------------------|
|--15------17-12---------|
|------------------------|
|------------------------|
|------------------------|
|------------------------|

  E5  D          G   D            G       D
|--------------|----------------|----------------|
|-5---3---(3)--|-----3---(3)-3\-|----------------|
|-4---2---(2)--|-0---2---(2)-2\-|-5-------7---7--|
|-2---0---(0)--|-0---0---(0)-0\-|---5-----7---7--|
|-2------------|----------------|-----3-0-5-5-5--|
|-0------------|-3--------------|----------------|


|--------*|
|--------*|
|--------*|
|-2------*|
|-2------*|
|-0------*|

P.s I hate typing!!!(so Much)
Добавлено: 21.03.2012
Другие материалы по этой песне:

Страница создана 08.03.2012
http://primanota.ru/dokken/prisoner-chords.htm
Привет, Гость.
Предлагаем пройти революционный курс по гитаре.
Подарок от PrimaNota.Ru, забирай!