PrimaNota.ru - самый крупный в мире бесплатный архив песенных текстов, аккордов, табулатур и нот


Dokken - Tooth And Nail - текст песни, таба, видео

Регистрация Запомнить меня
Войти через:  Facebook Google Twitter Vk Yandex Mail.ru

Dokken - Tooth And Nail - текст песни, таба, видео

Печатать
Просмотров: 177
Tuning: Standard

-------------------------------------------------3-|2-------------------------|
------------------------------------------3----3-3-|3-------------------------|
----------------------------------------2-2-2--2-0-|2-2-----------------------|
-432200--------------2-------5--------0-2-0-2--0-0-|--2-----------------------|
--------432210-------2---7-----7---7--0-0---0----x-|--0-----------------------|
---------------4320--0-0---0-----0---------------3-|--------------------------|

-------------------------------------------------|----------------------------|
-------------------------------------------------|----------------------------|
-------------------------------------------------|----------------------------|
----------------5-----------------------------78-|-7-7------------------------|
-577777\----------5757\-------5-777777--------56-|-5-5------------------------|
---------000000---0-----0000000--------000000----|----------------------------|

------------------------------------------------------------------------------|
-------------x2---------------------------------------------------------------|
------------------------------------------------------------------------------|
-4----------42--------------42------------------------------------------------|
-2-52525252----5--2-52525252---5---2225-3336-4447---558-----------------------|
------------------------------------------------------------------------------|

-t17-9--14p9h14--|-t16-9-12p9h12|---------------|--------------|--------------|
-------x4--------|------x4------|t17-10-14p10h14|--t17-12t16-12|--------------|
-----------------|--------------|-------x4------|--------------|--------------|
-----------------|--------------|---------------|--------------|--------------|
-----------------|--------------|---------------|--------------|--------------|
-----------------|--------------|---------------|--------------|--------------|

------------|---t15-8-12p8h12|------------------|-t-15-8-12p8h12--------------|
-t-17-10-12-|----------------|---t14-7-11p7h11p7|-----------------------------|
----x-16----|----------------|------------------|-----------------------------|
------------|----------------|------------------|-----------------------------|
------------|----------------|------------------|-----------------------------|
------------|----------------|------------------|-----------------------------|

--------------|----------------|--------------|-------------------------------|
-t------------|----------------|--------------|-------------------------------|
-12-5-9p5h9p5-|----------------|--------------|-------------------------------|
--------------|-t-11-4-8p4h8p4-|--------------|-------------------------------|
--------------|----------------|-t10-3-7p3h7p3|-------------------------------|
--------------|----------------|--------------|t9-2-6p2h6---------------------|

------------------------------------------------------------------------------|
-8p7------8p7-10-b---------------------8p7-----8p7-10b-8p7---10-12-10-12------|
-----9-9v----------9-12-11-99-11-9-8v------99v------------99------------------|
------------------------------------------------------------------------------|
------------------------------------------------------------------------------|
------------------------------------------------------------------------------|

-------------|---------8h10h12-|-----------12--------7h8h10-------------------|
-11-12-11-98-|-8h10h12---------|---8h10h12----7h8h10--------10p8p7------------|
-------------|-----------------|-----------------------------------9-7v-------|
-------------|-------x3--------|----------------------------------------------|
-------------|-----------------|----------------------------------------------|
-------------|-----------------|----------------------------------------------|

--------5-7-8|--------8-------------------------------------------------------|
-5-7-8-------|--5-7-8----------------5h7h8p7p5--------------------------------|
-------------|----------------4h5h7-------------------------------------------|
-----x3------|----------4h5h7-------------------------------------------------|
-------------|----------------------------------76b---------------------------|
-------------|----------------------------------------------------------------|

-22-20-19-17-15-14------------------------------------------------------------|
-------------------15-13-12-10-8-7--------------------------------------------|
-----------------------------------7-5-4--------------------------------------|
-----------------------------------------7-5-4--------------------------------|
-----------------------------------------------5-3-2--------------------------|
-----------------------------------------------------5-3-2--------------------|

tremelo pick ^

Notation used:
b-bend
h-hammer on
p-pull off
v-vibrato
t-tapping
/-slide
Добавлено: 24.04.2012
Другие материалы по этой песне:

Страница создана 18.03.2012
http://primanota.ru/dokken/tooth-and-nail-chords.htm
Привет, Гость.
Предлагаем пройти революционный курс по гитаре.
Подарок от PrimaNota.Ru, забирай!