PrimaNota.ru - самый крупный в мире бесплатный архив песенных текстов, аккордов, табулатур и нот


Dokken - Its Not Love - аккорды и текст, таба, бас-таба, видео

Регистрация Запомнить меня
Войти через:  Facebook Google Twitter Vk Yandex Mail.ru

Dokken - Its Not Love - аккорды и текст, таба, бас-таба, видео

Печатать
Просмотров: 344
Its Not Love
Dokken
		   "It's Not Love"     by Dokken
toast@intellinet.com


------------------------------------------------------------------------------
------------------------------------------------------------------------------
-*--9--9---9-9----8------8-------8-------5--5---5-5----5-------5-------5----*-
-*--7--7---7-7----7------7-------7-------5--5---5-5----4-------4-------4----*-
-----0--0------0------0---0-0-0-----------0--0------0-------0---0-0-0---------
------------------------------------------------------------------------------
repeat

------------------------------------------------------------------------------
------------------------------------------------------------------------------
-----------------------2------5-----7-----------------------------------------
------3----3-3--5------2------5-----7-----------------------------------------
------3----3-3--5------0--0-0---0-0------0-0-0-0-0-0--------------------------
--3/5---5-----------------------------------------------15\-------------------

------------------------------------------------------------------------------
------------------------------------------------------------------------------
--2------5-----7---7---7---7------2------5------7-----------------------------
--2------5-----7-----5---4---5----2------5------7-----------------------------
--0--0-0---0-0--------------------0--0-0---0-0-----0-0-0-0-0-0----------------
------------------------------------------------------------------------------


------------------------------------------------------------------------------
------------------------------------------------------------------------------
-----------------2--------5--4------------------------------------------------
--------2--------2--------5--4------------------------------------------------
--------2--------0--0-0---3--2------------------------------------------------
---3b4--0---3b4---------------------------------------------------------------





	  ____  _____    __    ___  ____
	 (_  _)(  _  )  /__\  / __)(_  _)
	   )(   )(_)(  /(__)\ \__ \  )(
	  (__) (_____)(__)(__)(___/ (__)     
Добавлено: 07.10.2013
Другие материалы по этой песне:

Страница создана 22.02.2012
http://primanota.ru/dokken/its-not-love-chords.htm
Привет, Гость.
Предлагаем пройти революционный курс по гитаре.
Подарок от PrimaNota.Ru, забирай!