PrimaNota.ru - самый крупный в мире бесплатный архив песенных текстов, аккордов, табулатур и нот


Dokken - Mr Scary - текст песни, таба, видео

Регистрация Запомнить меня
Войти через:  Facebook Google Twitter Vk Yandex Mail.ru

Dokken - Mr Scary - текст песни, таба, видео

Печатать
Просмотров: 190
Song:Mr.Scary
Artist:Dokken
Written By:G.Lynch,J.Pilson
Album:Back For The Attack
Tuning:Standard
 
Notation:
-------------------------
t - tapping
p - pull-off
h - hammer-on
// - tremelo picking
x - rake
x\ - pick slide
<#> - degree of whammy bar dive (- is push down,+ is pull up)
a.h. - artificial harmonic
p.m. - palm muting
s - slide (/ is up,\ is down)

Intro:
   h                           h                   p p     p   p   h
|--------------------------------------------------------------------------|
|--------------------------------------------------------------------------|
|--------------------------------------------------------------------------|
|-----------------4-----5-----2-4------------------------------------------|
|-------------------------------------------------5-4-2---4-2--------------|
|-0-2-2-2-2-2-2-2---2-2---2-2-----2-2-2-2-2-2-2-2-------5-----5-4-0-2-2-2-2|
 |p.m.-------------------------------------------|               |p.m.-----
 
                    h                    s  s  s   h                        
|--------------------------------------------------------------------------|
|--------------------------------------------------------------------------|
|------------------------------------0-------------------------------------|
|------4-----5-----2-4---------------0-3-/4-/6-/9-----------------4-----5--|
|--------------------------------------------------------------------------|
|2-2-2---2-2---2-2-----2-2-2-2-2-2-2--------------0-2-2-2-2-2-2-2---2-2---2|
 -----------------------------------|            |p.m.---------------------
 
     h                   p p     p   p   h                           h
|--------------------------------------------------------------------------|
|--------------------------------------------------------------------------|
|--------------------------------------------------------------------------|
|---2-4-------------------------------------------------4-----5-----2-4----|
|-----------------------5-4-2---4-2----------------------------------------|
|-2-----2-2-2-2-2-2-2-2-------5-----5-4-0-2-2-2-2-2-2-2---2-2---2-2-----2-2|
 ----------------------|               |p.m.-------------------------------
 
                                                          h p p
|--------------------------------------------------------------------------|
|--------------------------------------------------------------------------|
|--------------------------------------------------------------------------|
|------------------------------------------------4---5---4-5-4-2-----------|
|--------------------------------4---5---4---------------------------4---5-|
|2-2-2-2-2-2-5-5-5-5-4-4-4-4-2-2---2---2---2-2-2---2---2---------2-2---2---|
 -----------|               |p.m.-----------------------|       |p.m.------
 
         p p     p   p                                  p p
|--------------------------------------------------------------------------|
|--------------------------------------------------------------------------|
|--------------------------------------------------------------------------|
|-------------------------------------------4---5---5--4-5-2---------------|
|---4---5-4-2---4-2---------4---5---4----------------------------4---5---4-|
|-2---2-------5-----5-4-2-2---2---2---2-2-2---2---2----------2-2---2---2---|
 --------------------------------------------------|      |p.m.------------
 
|------------------|
|------------------|
|------------------|
|------------------|
|0-4---------------|
|----5-5-5-5-4-4-4-|
 ------------------|
 
                                 s 
|--------------------------------------------------------------------------|
|-----------7--------------------------------------------7-----------------|
|--5--8--9--8--8-~~~~~~~~~~~~--8-/9-~~~~~~~~~~~--5-8--9--8--8-~~~~~~~~~~~~-|
|--7--10-11----10~~~~~~~~~~~~--10/11~~~~~~~~~~~--7-10-11----10~~~~~~~~~~~~-|
|--------------------------------------------------------------------------|
|--------------------------------------------------------------------------|
 
                      h  p    p      h  p    p      h  p      p  s     p
|--------------------9-10-9---------9-10-9---------9-10-9------------------|
|---------------------------12-9-----------12-9-----------9------/17-15-14-|
|-8-/9-~~~~~~~~~--11-------------11-------------11----------11-9-----------|
|-10/11~~~~~~~~~-----------------------------------------------------------|
|--------------------------------------------------------------------------|
|--------------------------------------------------------------------------|
 
                 p  s     p  h  p  s  h  p  VVVVVVV
|--------------------------------------------------------------------------|
|--14----14-------------------------------------------------7--------------|
|16---16----16-16-14\13-----------------------------5-8--9--8--8-~~~~~~~~~~|
|-----------------------16-13-16-14/16-19-16--------7-10-11----10~~~~~~~~~~|
|--------------------------------------------------------------------------|
|--------------------------------------------------------------------------|
 
     s                                        s            h           h  
|--------------------------------------------------------------------------|
|---------------------------7----------------------------------------------|
|--8-/9-~~~~~~~~~--5--8--9--8--8-~~~~~~-10--8-/9-~~~~~~~~------------------|
|--10/11~~~~~~~~~--7--10-11----10-------12--10/11~~~~~~~~-7-9-9-9-9-9-9-7-7|
|--------------------------------------------------------------------------|
|--------------------------------------------------------------------------|
 
                                                                p  p  s
 a.h.    h  p               rake            s        -1  -1 -1 -1 -1  -1VVV
|--------------------------------------20----------------------------------|
|--------------------------------------------------------------------------|
|------------------------11---------18----18\17-----18-18-18-18-17-16\14---|
|-9---7-9-10-9-7-9-7-9-7-------x-16----------------------------------------|
|-----------------------------x--------------------------------------------|
|----------------------------x---------------------------------------------|
 
 VVVV (gradual bend)VVVVVV    p        a.h.                          p  
|--------------------------4---------------------------7----7b(8)-4--------|
|----------------------------7-4------------------------------------7-4----|
|-----7b(9)----------------------6---4-6~~~~~~~~~~~~~-------------------6b-|
|--------------------------------------------------------------------------|
|--------------------------------------------------------------------------|
|--------------------------------------------------------------------------|
 
        VVVVV (w\Flanger)------------|                            s    <-1>
|--------------13-----14-----15-----16-------------------------------------|
|--------------12-----13-----14-----15------------7------------------------|
|(7)--4-6------13-----14-----15-----16---5--8--9--8-8-~~~~~~~~~-8-/9-~~~~--|
|--------------//-----//-----//-----//---7--10-11---10~~~~~~~~~-10/11~~~~--|
|--------------------------------------------------------------------------|
|--------------------------------------------------------------------------|
 
                                        p           s                s
|--------------------------------------------------------------------------|
|------------7-------------------------------------------------------------|
|---5--8--9--8--8-~~~--8--7--5--7---7--7--6---------/9--9--8~~~~~~~--/7--7-|
|---7--10-11----10~~~--10-9--7--9---7--7-----------------------------------|
|---------------------------------------7-9--------------------------------|
|--------------------------------------------------------------------------|
 
                     s                           h p
|--------------------------------------------------------------------------|
|--------------------------------------------------------------------------|
|6~~~~~~~-------14-14\-----------------------------------------------------|
|---------14-16-14-14\------------------4---5---4-5-2----------------------|
|-----------------------4---5---4-------------------------4---5---4--------|
|-------------------2-2---2---2---2-2-2---2---2-------2-2---2---2---2-2-2-2|
                   |p.m.-----------------------|     |p.m.-----------------
 
                                                       h   p       h h
|--------------------------------------------------------------------------|
|-------------------------------------------------------------------------3|
|-------------9--9b(11)-8~~~~~~~~--7-7-9-6~~~~~~~~~~~-----------2-------2-2|
|---------------------------------------------------------2-0-4-4-0-2-4-4--|
|-----------------------------------------------------0-4-4-2-5---2-4-5----|
|-2-2-2-2-5-3-----------------------------------------2-5------------------|
 ------------|                                        (two guitars)
 
        s                         
|--------------------------------------------------------------------------|
|-----5/3-7-6~~~~~~~~----------------14------12------10------9-------------|
|---4-4/4-7-6~~~~~~~~--12b(14)~~~~~~-16b(18)-14b(16)-12b(14)-11b(13)-11~~--|
|-6-6----------------------------------------------------------------7--10-|
|-7------------------------------------------------------------------------|
|--------------------------------------------------------------------------|
 
                  s         s         
|----------------------------------------------------------------16b(17)-x\|
|--------------------------------------7----------10-9---------------------|
|---8-----------8-/10~~~~~~~\-5--8--9--8-8-~~~~~~------11~~~~~~~-----------|
|11---10~~~~~~~-10/11~~~~~~~\-7--10-11---10~~~~~~-11-9-7~~~~~~~~-----------|
|--------------------------------------------------------------------------|
|--------------------------------------------------------------------------|
 
   h  p        h  p     h  h  p  p     h  p     p  h  p     h  p  h  p  
|---------14----------14-16-17-16-17----------17-16-17-14------------------|
|14-15-14----14-15-14----------------14-15-14-------------14-15-14-15-14---|
|------------------------------------------------------------------------16|
|--------------------------------------------------------------------------|
|--------------------------------------------------------------------------|
|--------------------------------------------------------------------------|
 
            s   h p
|---------------------------------------------------------------------11-13|
|14----14--------------------12-14-13~~~~----12-13-14-14-----------13-13-15|
|---16----16\-11-9-11-11~~~~~-------------14-------------11~~~~~~~-13------|
|--------------------------------------------------------------------------|
|--------------------------------------------------------------------------|
|--------------------------------------------------------------------------|
 
 
 
   p  p              p  p              p  p              p  p   s
|14-13-11----11-13-14-13-11----11-13-14-13-11----11-13-14-13-11-----------|
|16-15-13-13-13-15-16-15-13-13-13-15-16-15-13-13-13-15-16-15-13-/20b(21)~~|
|---------13----------------13----------------13--------------------------|
|-------------------------------------------------------------------------|
|-------------------------------------------------------------------------|
|-------------------------------------------------------------------------|

                                         h  p
|-----20b(21)-20----16----------------------------------------------------|
|~~~----------//----//---19---17----------------------------------------7-|
|------------------------//------18---17-18-17------------------5-8--9--8-|
|--------------------------------//------------18---16~~~~~~~~--7-10-11---|
|-------------------------------------------------------------------------|
|-------------------------------------------------------------------------|

    *  *    s                                            h
|-------------------------------------------------------------------------|
|-----------------------------7-------------------------------------------|
|-8~~~~~~-8-/9~~~~~~-5--8--9--8--8~~~~~~~-8--7-5-7--7--7--6~~~~~~~---9--9-|
|-10~~~~~-10/11~~~~~-7--10-11----10~~~~~~-10-9-7-9--7--7------------------|
|-------------------------------------------------------7-9---------------|
|-------------------------------------------------------------------------|
 (*-pull up on bar)
 
           s        <-1>                             h p
|-------------------------------------------------------------------------|
|-------------------------------------------------------------------------|
|-8~~~~~~~-/7--7--6-------------------------------------------------------|
|-------------------------------------------4---5---4-5-2-----------------|
|---------------------------4---5---4-------------------------4---5---4---|
|-----------------------2-2---2---2---2-2-2---2---2-------2-2---2---2---2-|
                       |p.m.-----------------------|     |p.m.------------
 
  p p     p   p                         *(w\feedback)                    s
|-------------------------------------------------------------------------|
|-------------------------------------------------------------------------|
|----------------9--9b(11)-8--\7--7b(9)-6*------6-----4-----7-----6-------|
|---------------------------------------------6-----------4---------------|
|5-4-2---4-2--------------------------------4-----4-4---4-----4-4---4-4-2/|
|------5-----5-4----------------------------------------------------------|
 ---------------|                            |p.m.-----------------------|

                           a.h.  s                          s
|-------------------------------------------------------------------------|
|------------------------------------------------------------------14-----|
|------6-----4-----7-------6~~~~----6-----4-----7-----6------------16b(18)|
|----6-----------4-----4-4----------6---6-----4-7-----6-4-4---------------|
|4-4-----4-4---4-----4----------2/4---4-4---4-----4-4-------2/4-4-4-------|
|-------------------------------------------------------------------------|
  |p.m.-------------------|        |p.m.-------------------| 
 
 
 
                                      s                           s
|------------------------12b(14)~~~~--------------------------------------|
|12------10------9--------------------------------------------------------|
|14b(16)-12b(14)-11b(13)--------------------------------------------------|
|-------------------------------------------------------------------------|
|----------------------------------------------------------7-----4/6------|
|------------------------------------2/4-4-4-7-4-4-4-4-4-4---4-4-----2-4-4|
                                        |p.m.-------------------|   |p.m.--

                    s       p                 h           s
|-------------------------------------------------------------------------|
|-------------------------------------------------------------------------|
|--------4~~~~~~~~--------------------------------------------------------|
|--------2----------------------------------------------------------------|
|--2-------------------------------------7---4-6---4----------------------|
|4---4-4-4---------2/4-4-4-7-4-4-4-4-4-4---4-----7---6-7-2/4-4-4-7-4-0-2-2|
 -------|             |p.m.-----------------|              |p.m.----------|
 
              s       p                   h   s                 h
|-------------------------------------------------------------------------|
|-------------------------------------------------------------------------|
|-------------------------------------------------------------------------|
|-------------------------------------------------------------------------|
|1---2---1-------------------------7-----4-6---------------7---4-6---4----|
|--2---2---2-2/4-4-4-7-4-4-4-4-4-4---4-4-----2/4-4-4-7-4-4---4-----7---6-7|
                |p.m.-------------------|       |p.m.---------------------|
 
 
 
  s       p                   h   h                    s   p
|-------------------------------------------------------------------------|
|-------------------------------------------------------------------------|
|-------------------------------------------------------------------------|
|-------------------------------------------------------------------------|
|----------------------7-----4-6-----------------1----1/2-7-6---4~~~~~-7-7|
|2/4-4-4-7-4-4-4-4-4-4---4-4-----2-4-4-4-7-4-0-0-2--2-2/4-----7-----------|
   |p.m.---------------------------------------|          
 
 p                                     h p p h  
|--------------------------------------------------------------------------|
|--------------------------------------------------------------------------|
|---------------------------------------------------------9-------9----9---|
|-------------6-4b(6)-4--6-6b(7)--6-4-6-7-6-4-6~~~~~~~~~\------------------|
|-6-4-4-4-7-4-----------------------------------------------11-11---11---11|
|--------------------------------------------------------------------------|

        s         p   h p              s             h               s 
|--------------------------------------------------------------------------|
|---------------------------------x-9-9\7---7b(9)---8-9-8-7---7------/12---|
|-9----9\8---8---9-6-6-4-6~~~~~~-x----------------9---------9---9--\-----11|
|-----------------------------------------9--------------------------------|
|---11-----9---9-----------------------------------------------------------|
|--------------------------------------------------------------------------|
 
       h  p      h  p      h  p      h  p      h  p h  p             h  p  h 
|---------------------------------------------------------12b(13)----------|
|9----9-12-9----9-12-9----9-12-9----9-12-9----9-12-9-12-9------------------|
|--12--------12--------12--------12--------12----------------------12-13-12|
|--------------------------------------------------------------------------|
|--------------------------------------------------------------------------|
|--------------------------------------------------------------------------|
 
   p  h  p        h  p       p  h  p     p     h  p     p     a.h.
|--------------------------------------------------------------------------|
|------------12--------------------------------------------------------12b|
|13-12-13-12----12-13-12---13-12-16-12-------12-13-12----------------------|
|--------------------------------------14-11----------14-11---11~~~~~~-----|
|--------------------------------------------------------------------------|
|--------------------------------------------------------------------------|

        p h  s  p       p              p  p                        s    p    
|----9---------------------------------------------------------------------|
|(14)--12-9-12\11-9----10-9----9----9--------------------------------------|
|-------------------11------11---12---12-11-9-11-9-9-8-9-8----8-------6----|
|----------------------------------------------------------11---11-9\-6-9-6|
|--------------------------------------------------------------------------|
|--------------------------------------------------------------------------|
 
      *<+1>             h       t            s  h  h  p     h  p  h  h  h
|----------------------------------------------9-11-12-11-11-12-11-12-14-16|
|-----------------7-7--6-7------19b(21)-b(19)\-----------------------------|
|9b(11)--*---b(9)----------------------------------------------------------|
|--------------------------------------------------------------------------|
|--------------------------------------------------------------------------|
|--------------------------------------------------------------------------|

    s  h  p  s h  p s  h  p  h  h  p  h  p  h     p     h            p  p 
|-12\11-12-11\9-11-9/11-12-11-12-14-12-14-12-14-------19-21b(23)b(21)-17-16|
|-----------------------------------------------21-22----------------------|
|--------------------------------------------------------------------------|
|--------------------------------------------------------------------------|
|--------------------------------------------------------------------------|
|--------------------------------------------------------------------------|
 
   p  h     h  p     p  p     h  h     h  p       p h h   h h
(w\feedback)                                                   
|---------16-17-16---------------------------------------4-5-4-------------|
|19-16-17----------19-17-16----------14-16-14----5-4-5-7-------5-----------|
|---------------------------13-14-16----------14-----------------6~~~~~~~~~|
|--------------------------------------------------------------------------|
|--------------------------------------------------------------------------|
|--------------------------------------------------------------------------|
 
                 <+1>       s                               p           p
|--------------------------------------------------------------------------|
|------------7--------------------------------7-----------17-14----14-17-14|
|---5--8--9--8--8~~~~~~~~-8-/9~~~~~~-5--8--9--8--8~~~~~~~-------16---------|
|---7--10-11----10~~~~~~~-10/11~~~~~-7--10-11----10~~~~~~------------------|
|--------------------------------------------------------------------------|
|--------------------------------------------------------------------------|
 
         p               p  h  p  h  p                 p  h  h
|-------------------14-----------------------------------------------------|
|------17-14-----------17-14-17-14-15-14----14----14-------------14b(15)-b(|
|17b(19)-----16b(18)---------------------16----16----16-14-15-16-----------|
|--------------------------------------------------------------------------|
|--------------------------------------------------------------------------|
|--------------------------------------------------------------------------|
 
      p        h        s     p        h        ah
|------------------------------------------------------|
|14)------14-------14-15\14-------14-------------------|
|---16-15----15-16----------16-15----15-16-16---16~~~~~|
|------------------------------------------------------|
|------------------------------------------------------|
|------------------------------------------------------|

                                        h
|--------------------------------------------------------------------------|
|----------7---------------------------------------------------------------|
|-5--8--9--8--8~~~~~~~~-8--7-5-7--7--7-4-6~~~~~~~~~~~~~~~~~~-----18-17-----|
|-7--10-11----10~~~~~~~-10-9-7-9--7--7------------------------16-----------|
|--------------------------------------7-9~~~~~~~~~~~~~~~~~~---------------|
|--------------------------------------------------------------------------|

   s                                          s                s   *-1   -1 
|--------------------------------------------------------------------------|
|--------------------------------------------------------------------------|
|--/18~~~~~~~~~~~~----18-17--------17-18------\----18-17-------\--14--0-14-|
|------------------16---------------------------16-------------------------|
|--------------------------------------------------------------------------|
|--------------------------------------------------------------------------|
 
     -1    -1  -1 p                s  (w\feedback)               h  ah
|--------------------------------------------------------------------------|
|-------------------------------------19~~~~~~~~~~~~~~~~~~~~---------------|
|-0-14--0-14--0--14-0-----18-17-----\------------------------4-4-4-6-5~~~~~|
|----------------------16--------------------------------------------------|
|--------------------------------------------------------------------------|
|--------------------------------------------------------------------------|

        s       s p          s                      h p                   s
|--------------------5-----------------------------------------------------|
|-------------\8\7-4-------------------------------------------------------|
|~~~~~-5/6-------------------/4-4-6--5~~~~~~~~\-/--------------------------|
|--------------------------------------------------6-7-6-7-9-6-7---6-------|
|----------------------------------------------------------------9---7-9-9\|
|--------------------------------------------------------------------------|

  h         s        <-1/2 -1/2 -1/2 -1/2>      h h      p       h
|--------------------------------------------------------------19-21b(23)b-|
|-----------------------------------------------------------22-------------|
|----------4/6-5--\-/9-------------------\-----4-6-5----5-4----------------|
|------2-4---------------------------------2-4-----------------------------|
|4-7-7---------------------------------------------------------------------|
|--------------------------------------------------------------------------|
 
           p  h     h  p     p    h  h    s  s         h h    h  p
|(21)-17----------16-17-16---------------9/11\9----------------------------|
|--------17-16-17----------19-17-9-10-12--------10-----------9-10-9--------|
|--------------------------------------------------11-8-9-11--------9-8----|
|-----------------------------------------------------------------------11-|
|--------------------------------------------------------------------------|
|--------------------------------------------------------------------------|

   s       
|----------|
|----------|
|-11\------|
|-11\------|
|-9-\------|
|-2-\------|
 
Добавлено: 16.07.2012
Другие материалы по этой песне:

Страница создана 28.02.2012
http://primanota.ru/dokken/mr-scary-chords.htm
Привет, Гость.
Предлагаем пройти революционный курс по гитаре.
Подарок от PrimaNota.Ru, забирай!