PrimaNota.ru - самый крупный в мире бесплатный архив песенных текстов, аккордов, табулатур и нот


Dillinger Escape Plan - Highway Robbery - текст песни, таба, бас-таба, видео

Регистрация Запомнить меня
Войти через:  Facebook Google Twitter Vk Yandex Mail.ru

Dillinger Escape Plan - Highway Robbery - текст песни, таба, бас-таба, видео

Печатать
Просмотров: 195
Авторы музыки: Greg Puciato, Ben Weinman

Highway Robbery                                 
The Dillinger Escape Plan
Utwór 3



     TP           TP          TP      TP           TP           
     H.           H        E  Q    E  H.           H        E   
E||------------------------------------------------------------|
B||------------------------------------------------------------|
G||------------------------------------------------------------|
D||------------------------------------------------------------|
A||--5------------4--------L--1----L--5------------4--------L--|
E||------------------------------------------------------------|


  E  H.              E  E  Q    Q    S S S S  
------------------|--------------------------|
------------------|--------------------------|
------------------|--------------------------|
------------------|--------------------------|
------------------|--------------------------|
------------------|--------------------------|


  PM PM PM PM PM PM PM PM PM PM PM PM PM PM  
  S  S  S  S  S  S  S  S  S  S  S  S  S  S   
--------------------------------------------|
--------------------------------------------|
--------------------------------------------|
-----------------------------2--------------|
--------4-----------5--4--3-----3--2--1--1--|
--3--3-----3--2--2--------------------------|


  PM PM PM PM PM PM PM PM PM                
  S  S  S  S  S  S  S  S  S  S S S S S S S  
-------------------------------------------|
-------------------------------------------|
-------------------------------------------|
-----------------------------2-------------|
--------4-----------5--4--3----3-2---------|
--3--3-----3--2--2-------------------------|


  PM PM PM PM PM PM PM PM PM PM PM PM PM PM  
  S  S  S  S  S  S  S  S  S  S  S  S  S  S   
--------------------------------------------|
--------------------------------------------|
--------------------------------------------|
-----------------------------2--------------|
--------4-----------5--4--3-----3--2--1--1--|
--3--3-----3--2--2--------------------------|


  PM PM PM PM PM PM PM PM PM                                    
  S  S  S  S  S  S  S  S  S  S S S S S S S S S S S S S S S S S  
---------------------------------------------------------------|
---------------------------------------------------------------|
---------------------------------------------------------------|
-----------------------------2---------4-4-3-3-----------------|
--------4-----------5--4--3----3-2-1-1-------------------------|
--3--3-----3--2--2---------------------------------------------|


  S S S E  S E  S S S S S S S S    S S S E  S E  S S S S S S S S  
----------------0-0-0-0-0-0-0-0-|----------------0-0-0-0-0-0-0-0-|
----------------x-x-x-x-x-x-x-x-|----------------x-x-x-x-x-x-x-x-|
----------------7-7-7-7-7-7-7-7-|----------------7-7-7-7-7-7-7-7-|
--3-3-3-6--6-2--7-7-7-7-7-7-7-7-|--3-3-3-6--6-2--7-7-7-7-7-7-7-7-|
--3-3-3-6--6-2--5-5-5-5-5-5-5-5-|--3-3-3-6--6-2--5-5-5-5-5-5-5-5-|
--1-1-1-4--4-0------------------|--1-1-1-4--4-0------------------|


  S S S E  S E  S S S S S S S S    S S S E  S E   
----------------0-0-0-0-0-0-0-0-|----------------|
----------------x-x-x-x-x-x-x-x-|----------------|
----------------7-7-7-7-7-7-7-7-|----------------|
--3-3-3-6--6-2--7-7-7-7-7-7-7-7-|--3-3-3-6--6-2--|
--3-3-3-6--6-2--5-5-5-5-5-5-5-5-|--3-3-3-6--6-2--|
--1-1-1-4--4-0------------------|--1-1-1-4--4-0--|


  PM PM PM PM PM PM PM PM PM PM PM PM PM PM  
  S  S  S  S  S  S  S  S  S  S  S  S  S  S   
--------------------------------------------|
--------------------------------------------|
--------------------------------------------|
-----------------------------2--------------|
--------4-----------5--4--3-----3--2--1--1--|
--3--3-----3--2--2--------------------------|


  PM PM PM PM PM PM PM PM PM                
  S  S  S  S  S  S  S  S  S  S S S S S S S  
-------------------------------------------|
-------------------------------------------|
-------------------------------------------|
-----------------------------2-------------|
--------4-----------5--4--3----3-2-1-3-2-1-|
--3--3-----3--2--2-------------------------|


  PM PM PM PM PM PM PM PM PM PM PM PM PM PM  
  S  S  S  S  S  S  S  S  S  S  S  S  S  S   
--------------------------------------------|
--------------------------------------------|
-----------------------------------------7--|
-----------------------------2--------------|
--------4-----------5--4--3-----3--2--1-----|
--3--3-----3--2--2--------------------------|


  PM PM PM PM PM PM PM PM PM PM PM PM                              
  S  S  S  S  S  S  S  S  S  S  S  S  S S S S S S S S S S S S S S  
------------------------------------------------------------------|
------------------------------------------------------------------|
--7--6--4--5--4--0--4---------------------------------------------|
-----------------------4--3-----3---------4-4-3-3-----------------|
-----------------------------4-----2--1-1-------------------------|
------------------------------------------------------------------|


  S S S E  S E  S S S S S S S S    S S S E  S E  S S S S S S S S  
----------------0-0-0-0-0-0-0-0-|----------------0---0-----0-0---|
----------------x-x-x-x-x-x-x-x-|----------------x---x-----x-x-x-|
----------------7-7-7-7-7-7-7-7-|----------------7---7-----7-7-x-|
--3-3-3-6--6-2--7-7-7-7-7-7-7-7-|--3-3-3-6--6-2--7---7-----7-7-x-|
--3-3-3-6--6-2--5-5-5-5-5-5-5-5-|--3-3-3-6--6-2--5---5-----5-5-x-|
--1-1-1-4--4-0------------------|--1-1-1-4--4-0------------------|


  S S S E  S E  S S S S S S S S    S S S E  S E  S E  S E  E   
----------------0-0-0-0-0-0-0-0-|-----------------------------|
----------------x-x-x-x-x-x-x-x-|-----------------------------|
----------------7-7-7-7-7-7-7-7-|-----------------------------|
--3-3-3-6--6-2--7-7-7-7-7-7-7-7-|--3-3-3-6--6-2--L-3--L-6--3--|
--3-3-3-6--6-2--5-5-5-5-5-5-5-5-|--3-3-3-6--6-2--L-3--L-6--3--|
--1-1-1-4--4-0------------------|--1-1-1-4--4-0--L-1--L-4--1--|


  S S E  H.              S S E  H.              S S E  H.            
--3-3-3--3------------|----------------------|--3-3-3--3------------|
--4-4-4--4------------|--4-4-4--4------------|--4-4-4--4------------|
--5-5-5--5------------|--4-4-4--4------------|--5-5-5--5------------|
--5-5-5--5------------|--6-6-6--6------------|--5-5-5--5------------|
--3-3-3--3------------|--6-6-6--6------------|--3-3-3--3------------|
----------------------|--4-4-4--4------------|----------------------|


  PM PM PM     PM PM PM     PM PM                            
  S  S  S  E.  S  S  S  E.  S  S  E     S S E  H.            
-----------0------------0---------0--|--3-3-3--3------------|
-----------0------------0---------0--|--4-4-4--4------------|
-----------0------------0---------0--|--5-5-5--5------------|
--4--4--4------4--4--4------4--4-----|--5-5-5--5------------|
--4--4--4------4--4--4------4--4-----|--3-3-3--3------------|
--2--2--2------2--2--2------2--2-----|----------------------|


  S S E  H.              S S E  H.            
----------------------|--3-3-3--3------------|
--4-4-4--4------------|--4-4-4--4------------|
--4-4-4--4------------|--5-5-5--5------------|
--6-6-6--6------------|--5-5-5--5------------|
--6-6-6--6------------|--3-3-3--3------------|
--4-4-4--4------------|----------------------|


  PM PM PM     PM PM PM     PM PM       TP           TP          TP       
  S  S  S  E.  S  S  S  E.  S  S  E     H.           H        E  Q    E   
-----------0------------0---------0--|-----------------------------------|
-----------0------------0---------0--|-----------------------------------|
-----------0------------0---------0--|-----------------------------------|
--4--4--4------4--4--4------4--4-----|-----------------------------------|
--4--4--4------4--4--4------4--4-----|--5------------4--------L--1----L--|
--2--2--2------2--2--2------2--2-----|-----------------------------------|


  PM PM PM PM PM PM PM PM PM PM PM PM PM PM  
  S  S  S  S  S  S  S  S  S  S  S  S  S  S   
--------------------------------------------|
--------------------------------------------|
--------------------------------------------|
-----------------------------2--------------|
--------4-----------5--4--3-----3--2--1--1--|
--3--3-----3--2--2--------------------------|


  PM PM PM PM PM PM PM PM PM                
  S  S  S  S  S  S  S  S  S  S S S S S S S  
-------------------------------------------|
-------------------------------------------|
-------------------------------------------|
-----------------------------2-------------|
--------4-----------5--4--3----3-2-1-3-2-1-|
--3--3-----3--2--2-------------------------|


  PM PM PM PM PM PM PM PM PM PM PM PM PM PM  
  S  S  S  S  S  S  S  S  S  S  S  S  S  S   
--------------------------------------------|
--------------------------------------------|
--------------------------------------------|
-----------------------------2--------------|
--------4-----------5--4--3-----3--2--1--1--|
--3--3-----3--2--2--------------------------|


  PM PM PM PM PM PM PM PM PM PM PM PM                              
  S  S  S  S  S  S  S  S  S  S  S  S  S S S S S S S S S S S S S S  
------------------------------------------------------------------|
------------------------------------------------------------------|
--8-----7-----5-----4-----1--5--4---------------------------------|
-----5-----5-----5-----4------------------4-4-3-3-----------------|
-----------------------------------2--1-1-------------------------|
------------------------------------------------------------------|


  S S S E  S E  S S S S S S S S    S S S E  S E  S S S S S S S S  
----------------0-0-0-0-0-0-0-0-|--------------------------------|
----------------x-x-x-x-x-x-x-x-|----------------x-x-x-x-x-x-x-x-|
----------------7-7-7-7-7-7-7-7-|----------------x-x-x-x-x-x-x-x-|
--3-3-3-6--6-2--7-7-7-7-7-7-7-7-|--3-3-3-6--6-2--x-x-x-x-x-x-x-x-|
--3-3-3-6--6-2--5-5-5-5-5-5-5-5-|--3-3-3-6--6-2--x-x-x-x-x-x-x-x-|
--1-1-1-4--4-0------------------|--1-1-1-4--4-0------------------|


  S S S E  S E  S S S S S S S S    S S S E  S E  S E  S E  E   
----------------0-0-0-0-0-0-0-0-|-----------------------------|
----------------x-x-x-x-x-x-x-x-|-----------------------------|
----------------7-7-7-7-7-7-7-7-|-----------------------------|
--3-3-3-6--6-2--7-7-7-7-7-7-7-7-|--3-3-3-6--6-2--L-3--L-6--3--|
--3-3-3-6--6-2--5-5-5-5-5-5-5-5-|--3-3-3-6--6-2--L-3--L-6--3--|
--1-1-1-4--4-0------------------|--1-1-1-4--4-0--L-1--L-4--1--|


  S S E  H.              S S E  H.              S S E  H.            
--3-3-3--3------------|----------------------|--3-3-3--3------------|
--4-4-4--4------------|--4-4-4--4------------|--4-4-4--4------------|
--5-5-5--5------------|--4-4-4--4------------|--5-5-5--5------------|
--5-5-5--5------------|--6-6-6--6------------|--5-5-5--5------------|
--3-3-3--3------------|--6-6-6--6------------|--3-3-3--3------------|
----------------------|--4-4-4--4------------|----------------------|


  PM PM PM     PM PM PM     PM PM                            
  S  S  S  E.  S  S  S  E.  S  S  E     S S E  H.            
-----------0------------0---------0--|--3-3-3--3------------|
-----------0------------0---------0--|--4-4-4--4------------|
-----------0------------0---------0--|--5-5-5--5------------|
--4--4--4------4--4--4------4--4-----|--5-5-5--5------------|
--4--4--4------4--4--4------4--4-----|--3-3-3--3------------|
--2--2--2------2--2--2------2--2-----|----------------------|


  S S E  H.              S S E  H.            
----------------------|--3-3-3--3------------|
--4-4-4--4------------|--4-4-4--4------------|
--4-4-4--4------------|--5-5-5--5------------|
--6-6-6--6------------|--5-5-5--5------------|
--6-6-6--6------------|--3-3-3--3------------|
--4-4-4--4------------|----------------------|


  PM PM PM     PM PM PM     PM PM     
  S  S  S  E.  S  S  S  E.  S  S  E   
-----------0------------0---------0--|
-----------0------------0---------0--|
-----------0------------0---------0--|
--4--4--4------4--4--4------4--4-----|
--4--4--4------4--4--4------4--4-----|
--2--2--2------2--2--2------2--2-----|


  TP           TP          TP      TP           TP          TP       
  H.           H        E  Q    E  H.           H        E  Q    E   
--------------------------------------------------------------------|
--------------------------------------------------------------------|
--------------------------------------------------------------------|
--------------------------------------------------------------------|
--5------------4--------L--1----L--5------------4--------L--1----L--|
--------------------------------------------------------------------|


  S S S H        Q    S    W                   S S S H        Q    S  
--------0--------L----L-|--L----------------|--------0--------L----L-|
------4-L--------L----L-|--L----------------|------4-L--------L----L-|
----3-L-L--------L----L-|--L----------------|----3-L-L--------L----L-|
--6-L-L-L--------L----L-|--L----------------|--6-L-L-L--------L----L-|
------------------------|-------------------|------------------------|
------------------------|-------------------|------------------------|


  W                   S S S H        Q    S    W                 
--L----------------|--------0--------L----L-|--L----------------|
--L----------------|------4-L--------L----L-|--L----------------|
--L----------------|----3-L-L--------L----L-|--L----------------|
--L----------------|--6-L-L-L--------L----L-|--L----------------|
-------------------|------------------------|-------------------|
-------------------|------------------------|-------------------|


  S S S H        Q    S    W                  
--------0--------L----L-|--L----------------||
------0-L--------L----L-|--L----------------||
----3-L-L--------L----L-|--L----------------||
--6-L-L-L--------L----L-|--L----------------||
------------------------|-------------------||
------------------------|-------------------||




Duration Legend
---------------
W - whole
H - half
Q - quarter
E - 8th
S - 16th
T - 32nd
X - 64th
. - note dotted
|-n-|  - n-tuplets


Tablature Legend
----------------
L - tied note
x - dead note
g - grace note
(n) - ghost note
> - accentuded note
NH - natural harmonic
AH - artificial harmonic
TH - tapped harmonic
SH - semi harmonic
PH - pitch harmonic
h - hammer on
p - pull off
b - bend
br - bendRelease
pb - preBend
pbr - preBendRelease
brb - bendReleaseBend
\n/ - tremolo bar dip
\n - tremolo bar dive
-/n - tremolo bar Release up
/n\ - tremolo bar inverted dip
/n - tremolo bar return
-\n - tremolo bar Release down
S - shift slide
s - legato slide
/ -  slide into from below or out of upwards
\ -  slide into from above or out of downwards
~ - vibrato
W - wide vibrato
tr - trill
TP - tremolo picking
T - tapping
S - slap
P - pop
< - fade in
^ - brush up
v - brush down
Добавлено: 23.04.2012
Другие материалы по этой песне:

Страница создана 23.04.2012
http://primanota.ru/dillinger-escape-plan/highway-robbery-chords.htm
Привет, Гость.
Предлагаем пройти революционный курс по гитаре.
Подарок от PrimaNota.Ru, забирай!