PrimaNota.ru - самый крупный в мире бесплатный архив песенных текстов, аккордов, табулатур и нот


Dillinger Escape Plan - Horse Hunter - текст песни, таба, видео

Регистрация Запомнить меня
Войти через:  Facebook Google Twitter Vk Yandex Mail.ru

Dillinger Escape Plan - Horse Hunter - текст песни, таба, видео

Печатать
Просмотров: 172
DILLINGER ESCAPE PLAN - HORSE HUNTER (Ire Works)

STANDARD TUNING - EADGBe


--11--11--11-----11--11--11-----|--11--12--12-----11--11--11-----|
--10--10--10-----10--10--10-----|--10--10--10-----10--10--10-----|
--8---8---8------8---8---8------|--8---8---8------8---8---8------|
--------------------------------|--------------------------------|
--------------------------------|--------------------------------|
--------------------------------|--------------------------------|

-----------------------|--------------------------|
--8--------------------|--6--6--6--6-----6-----6--|
-----6-----7-----------|--4--4--4--4-----4-----4--|
--------------6--------|--------------------------|
-----------------5-----|--------------------------|
-----------------------|--------------------------|



--11--------11-----11--12-----|--11--------11-----11--11-----|
--10--------10-----10--10-----|--10--------10-----10--10-----|
--8---------8------8---8------|--8---------8------8---8------|
------------------------------|------------------------------|
------------------------------|------------------------------|
------------------------------|------------------------------|



--------------------|---------------------------|
--------------------|---------------------------|
--5----9----8--8----|--5----9----8--8--8--------|
--5----9----8--8----|--5----9----8--8--8--------|
--3----7----6--6----|--3----7----6--6--6--------|
--------------------|---------------------------|

-----------------------|-------------------------------|
--8----12----11--11----|--8----12----11--11--11--------|
--7----11----10--10----|--7----11----10--10--10--------|
--5----9-----8---8-----|--5----9-----8---8---8---------|
-----------------------|-------------------------------|
-----------------------|-------------------------------|



--11--12--11-----11--11--11-----|--11--11--11-----11--11--11-----|
--10--10--10-----10--10--10-----|--10--10--10-----10--10--10-----|
---8---8---8------8---8---8-----|---8---8---8------8---8---8-----|
--------------------------------|--------------------------------|
--------------------------------|--------------------------------|
--------------------------------|--------------------------------|
   
-----------------------|--------------------------|
--8--------------------|--6--6--6--6-----6-----6--|
-----6-----7-----------|--4--4--4--4-----4-----4--|
--------------6--------|--------------------------|
-----------------5-----|--------------------------|
-----------------------|--------------------------|


  
--11--------11-----11--12-----|--11--------11-----11--11-----|
--10--------10-----10--10-----|--10--------10-----10--10-----|
--8---------8------8---8------|--8---------8------8---8------|
------------------------------|------------------------------|
------------------------------|------------------------------|
------------------------------|------------------------------|


     
--------------------|---------------------------|
--------------------|---------------------------|
--5----9----8--8----|--5----9----8--8--8--------|
--5----9----8--8----|--5----9----8--8--8--------|
--3----7----6--6----|--3----7----6--6--6--------|
                             
-----------------------|-------------------------------|
--8----12----11--11----|--8----12----11--11--11--------|
--7----11----10--10----|--7----11----10--10--10--------|
--5----9-----8---8-----|--5----9-----8---8---8---------|
-----------------------|-------------------------------|
-----------------------|-------------------------------|



-------------------|--------------------|-------------------|
-------------------|--------------------|-------------------|
--5----------------|--12----------------|-------------------|
--5----------------|--12----------------|--6----------------|
--3----------------|--10----------------|--6----------------|
-------------------|--------------------|--4----------------|
             
-------------------|-------------------|-------------------|
-------------------|-------------------|-------------------|
--7----------------|--5----------------|--7----------------|
--7----------------|--5----------------|--7----------------|
--5----------------|--3----------------|--5----------------|
-------------------|-------------------|-------------------|
                
-------------------|--------------------|---------------------------|
-------------------|--------------------|---------------------------|
--8----------------|--11----------------|--11-----------------------|
--8----------------|--11----------------|--11-----------------------|
--6----------------|--9-----------------|--9------------------------|
-------------------|--------------------|---------------------------|



-------------------|-------------------|
-------------------|-------------------|
-------------------|-------------------|
-------------------|-------------------|
-------------------|-------------------|
-------------------|-------------------|



-----------------------|-----------------------|
-----------------------|-----------------------|
--5-----4-----7--4-----|--5-----4-----7--4-----|
-----------------------|-----------------------|
-----------------------|-----------------------|
-----------------------|-----------------------|

-----------------------|-----------------------|
-----------------------|-----------------------|
--5-----4-----7--4-----|--5-----4-----7--4-----|
-----------------------|-----------------------|
-----------------------|-----------------------|
-----------------------|-----------------------|
  
-----------------------|-----------------------|
-----------------------|--------------6--------|
--8-----4-----0--7--8--|--0-----4--------4-----|
-----------------------|-----------------------|
-----------------------|-----------------------|
-----------------------|-----------------------|

-----------------------|-----------------------|
--------------6--------|--------------6--------|
--0-----4--------4-----|--0-----4--------4-----|
-----------------------|-----------------------|
-----------------------|-----------------------|
-----------------------|-----------------------|



--------------------------------------|--------------------------|
--------------------------------------|--------------------------|
--------------------------------------|--------------------------|
--------------------------------------|--------------------------|
--4--4--4--3--3--3--6--6--6--5--5--5--|--9--9--8--8--7--7--6--6--|
--2--2--2--1--1--1--4--4--4--3--3--3--|--7--7--6--6--5--5--4--4--|

--------------------------------------|----------------|
--------------------------------------|----------------|
--------------------------------------|----------------|
--6--6--6--5--5--5--8--8--8--7--7--7--|--10--10--11----|
--4--4--4--3--3--3--6--6--6--5--5--5--|---8---8---9----|
--------------------------------------|----------------|



-----------------------|-----------------------|-----------------------|
-----------------------|-----------------------|-----------------------|
--5-----4-----7--4-----|--5-----4-----7--4-----|--5-----4-----7--4-----|
-----------------------|-----------------------|-----------------------|
-----------------------|-----------------------|-----------------------|
-----------------------|-----------------------|-----------------------|

-----------------------|-----------------------|-----------------------|
-----------------------|-----------------------|--------------6--------|
--5-----4-----7--4-----|--8-----4-----0--7--8--|--0-----4--------4-----|
-----------------------|-----------------------|-----------------------|
-----------------------|-----------------------|-----------------------|
-----------------------|-----------------------|-----------------------|

-----------------------|-----------------------|
--------------6--------|--------------6--------|
--0-----4--------4-----|--0-----4--------4-----|
-----------------------|-----------------------|
-----------------------|-----------------------|
-----------------------|-----------------------|


-----------------------|-----------------------|-----------------------|
-----------------------|-----------------------|-----------------------|
--5-----4-----7--4-----|--5-----4-----7--4-----|--5-----4-----7--4-----|
-----------------------|-----------------------|-----------------------|
-----------------------|-----------------------|-----------------------|
-----------------------|-----------------------|-----------------------|

-----------------------|-----------------------|-----------------------|
-----------------------|-----------------------|--------------6--------|
--5-----4-----7--4-----|--8-----4-----0--7--8--|--0-----4--------4-----|
-----------------------|-----------------------|-----------------------|
-----------------------|-----------------------|-----------------------|
-----------------------|-----------------------|-----------------------|

-----------------------|-----------------------|
--------------6--------|--------------6--------|
--0-----4--------4-----|--0-----4--------4-----|
-----------------------|-----------------------|
-----------------------|-----------------------|
-----------------------|-----------------------|


-----------------------|-----------------------|-----------------------|
-----------------------|-----------------------|-----------------------|
--5-----4-----7--4-----|--5-----4-----7--4-----|--5-----4-----7--4-----|
-----------------------|-----------------------|-----------------------|
-----------------------|-----------------------|-----------------------|
-----------------------|-----------------------|-----------------------|

-----------------------|-----------------------|-----------------------|
-----------------------|-----------------------|--------------6--------|
--5-----4-----7--4-----|--8-----4-----0--7--8--|--0-----4--------4-----|
-----------------------|-----------------------|-----------------------|
-----------------------|-----------------------|-----------------------|
-----------------------|-----------------------|-----------------------|

-----------------------|-----------------------|
--------------6--------|--------------6--------|
--0-----4--------4-----|--0-----4--------4-----|
-----------------------|-----------------------|
-----------------------|-----------------------|
-----------------------|-----------------------|



----------------------------------|----------------------------------|
----------------------------------|----------------------------------|
----------------------------------|----------------------------------|
--10--10--10--10--10--10--10--10--|--10--10--10--10--10--10--10--10--|
---8---8---8---8---8---8---8---8--|---8---8---8---8---8---8---8---8--|
----------------------------------|----------------------------------|



--------------------------------------|--------------------------|
--------------------------------------|--------------------------|
--------------------------------------|--------------------------|
--------------------------------------|--------------------------|
--4--4--4--3--3--3--6--6--6--5--5--5--|--9--9--8--8--7--7--6--6--|
--2--2--2--1--1--1--4--4--4--3--3--3--|--7--7--6--6--5--5--4--4--|

--------------------------------------|----------------|
--------------------------------------|----------------|
--------------------------------------|----------------|
--6--6--6--5--5--5--8--8--8--7--7--7--|--10--10--11----|
--4--4--4--3--3--3--6--6--6--5--5--5--|---8---8---9----|
--------------------------------------|----------------|


--------------------------------------|--------------------------|
--------------------------------------|--------------------------|
--------------------------------------|--------------------------|
--------------------------------------|--------------------------|
--4--4--4--3--3--3--6--6--6--5--5--5--|--9--9--8--8--7--7--6--6--|
--2--2--2--1--1--1--4--4--4--3--3--3--|--7--7--6--6--5--5--4--4--|

--------------------------------------|----------------|
--------------------------------------|----------------|
--------------------------------------|----------------|
--6--6--6--5--5--5--8--8--8--7--7--7--|--10--10--11----|
--4--4--4--3--3--3--6--6--6--5--5--5--|---8---8---9----|
--------------------------------------|----------------|



----------------------|----------------------|
----------------------|----------------------|
----------------------|----------------------|
----------------------|----------------------|
--4----3----6----5----|--9----8----7----6----|
--2----1----4----3----|--7----6----5----4----|

----------------------|-------------|
----------------------|-------------|
----------------------|-------------|
----------------------|--7--6--5----|
--5----4----3----2----|--5--4--3----|
--3----2----1----0----|-------------|


----------------------|----------------------|
----------------------|----------------------|
----------------------|----------------------|
----------------------|----------------------|
--4----3----6----5----|--9----8----7----6----|
--2----1----4----3----|--7----6----5----4----|

----------------------|-------------|
----------------------|-------------|
----------------------|-------------|
----------------------|--7--6--5----|
--5----4----3----2----|--5--4--3----|
--3----2----1----0----|-------------|


----------------------|----------------------|
----------------------|----------------------|
----------------------|----------------------|
----------------------|----------------------|
--4----3----6----5----|--9----8----7----6----|
--2----1----4----3----|--7----6----5----4----|

----------------------|-------------|
----------------------|-------------|
----------------------|-------------|
----------------------|--7--6--5----|
--5----4----3----2----|--5--4--3----|
--3----2----1----0----|-------------|


----------------------|----------------------|
----------------------|----------------------|
----------------------|----------------------|
----------------------|----------------------|
--4----3----6----5----|--9----8----7----6----|
--2----1----4----3----|--7----6----5----4----|

----------------------|-------------|
----------------------|-------------|
----------------------|-------------|
----------------------|--7--6--5----|
--5----4----3----2----|--5--4--3----|
--3----2----1----0----|-------------|



Gtr I
--------------------|----------------|
--8--8--8--8--8--8--|--11--8--10--8--|
--------------------|----------------|
--------------------|----------------|
--------------------|----------------|
--------------------|----------------|

Gtr II                                   
--------------------|----------------|
--------------------|----------------|
--------------------|----------------|
--------------------|----------------|
--------------------|----------------|
-3~-----------------|----------------|


Gtr I
--------------------|-----------------13----------14--|
--8--8--8--8--8--8--|--11--8--10--10------10--10------|
--------------------|---------------------------------|
--------------------|---------------------------------|
--------------------|---------------------------------|
--------------------|---------------------------------|

Gtr II
--------------------|---------------------------------|
--------------------|---------------------------------|
--------------------|---------------------------------|
--------------------|---------------------------------|
--------------------|---------------------------------|
--------------------|---------------------------------|


Gtr I
----------------------10----------|----------------|
--10--10--------------------------|--11--8--10--8--|
----------11--11--11------11--11--|----------------|
----------------------------------|----------------|
----------------------------------|----------------|
----------------------------------|----------------|

Gtr II                                   
----------------------------------|----------------|
----------------------------------|----------------|
----------------------------------|----------------|
----------------------------------|----------------|
--3\--------------2\--------------|--1\-----0\-----|



Gtr I
--------------------|----------------|
--8--8--8--8--8--8--|--11--8--10--8--|
--------------------|----------------|
--------------------|----------------|
--------------------|----------------|
--------------------|----------------|

Gtr II
--------------------|--------------|
--------------------|--------------|
--------------------|--------------|
--------------------|--------------|
--5--5--5--5--5--5--|--7--7--8--8--|
--3--3--3--3--3--3--|--5--5--6--6--|
pm-------------------------------

Gtr I
--------------------|-----------------13----------14--|
--8--8--8--8--8--8--|--11--8--10--10------10--10------|
--------------------|---------------------------------|
--------------------|---------------------------------|
--------------------|---------------------------------|
--------------------|---------------------------------|

Gtr II
--------------------|--------------------------|
--------------------|--------------------------|
--------------------|--------------------------|
--------------------|--------------------------|
--5--5--5--5--5--5--|--8--8--7--7--7--7--7--7--|
--3--3--3--3--3--3--|--6--6--5--5--5--5--5--5--|
pm-------------------------------------------

Gtr I
----------------------10----------|----------------|
--10--10--------------------------|--11--8--10--8--|
----------11--11--11------11--11--|----------------|
----------------------------------|----------------|
----------------------------------|----------------|
----------------------------------|----------------|

Gtr II
--------------------------|-------------|
--------------------------|-------------|
--------------------------|-------------|
--------------------------|--------8----|
--7--7--4--4--4--4--4--4--|--------6----|
--5--5--2--2--2--2--2--2--|--6--8-------|
pm----------------------



Gtr I
--------------------|----------------|
--8--8--8--8--8--8--|--11--8--10--8--|
--------------------|----------------|
--------------------|----------------|
--------------------|----------------|
--------------------|----------------|

Gtr II
--------------------|--------------|
--------------------|--------------|
--------------------|--------------|
--------------------|--------------|
--5--5--5--5--5--5--|--7--7--8--8--|
--3--3--3--3--3--3--|--5--5--6--6--|
pm-------------------------------

Gtr I
--------------------|-----------------13----------14--|
--8--8--8--8--8--8--|--11--8--10--10------10--10------|
--------------------|---------------------------------|
--------------------|---------------------------------|
--------------------|---------------------------------|
--------------------|---------------------------------|

Gtr II
--------------------|--------------------------|
--------------------|--------------------------|
--------------------|--------------------------|
--------------------|--------------------------|
--5--5--5--5--5--5--|--8--8--7--7--7--7--7--7--|
--3--3--3--3--3--3--|--6--6--5--5--5--5--5--5--|
pm-------------------------------------------

Gtr I
----------------------10----------|----------------|
--10--10--------------------------|--11--8--10--8--|
----------11--11--11------11--11--|----------------|
----------------------------------|----------------|
----------------------------------|----------------|
----------------------------------|----------------|

Gtr II
--------------------------|-------------|
--------------------------|-------------|
--------------------------|-------------|
--------------------------|--------8----|
--7--7--4--4--4--4--4--4--|--------6----|
--5--5--2--2--2--2--2--2--|--6--8-------|
pm----------------------



Gtr I
--------------------|----------------|
--8--8--8--8--8--8--|--11--8--10--8--|
--------------------|----------------|
--------------------|----------------|
--------------------|----------------|
--------------------|----------------|

Gtr II
--------------------|--------------|
--------------------|--------------|
--------------------|--------------|
--------------------|--------------|
--5--5--5--5--5--5--|--7--7--8--8--|
--3--3--3--3--3--3--|--5--5--6--6--|
pm-------------------------------

Gtr I
--------------------|--13------13------13------13------|
--8--8--8--8--8--8--|------11------11------11------11--|
--------------------|----------------------------------|
--------------------|----------------------------------|
--------------------|----------------------------------|
--------------------|----------------------------------|

Gtr II
--------------------|--------------------------|
--------------------|--------------------------|
--------------------|--------------------------|
--------------------|--------------------------|
--5--5--5--5--5--5--|--8--8--8--8--8--8--8--8--|
--3--3--3--3--3--3--|--6--6--6--6--6--6--6--6--|
pm-------------------------------------------

Gtr I
--13------17------17------17------|--17------17------|
------11------15------15------15--|------15------15--|
----------------------------------|------------------|
----------------------------------|------------------|
----------------------------------|------------------|
----------------------------------|------------------|

Gtr II
--------------------------|--------------|
--------------------------|--------------|
--------------------------|--------------|
--------7--7--7--7--7--7--|--7--7--7--7--|
--8--8--5--5--5--5--5--5--|--5--5--5--5--|
--6--6--------------------|--------------|
pm-------------------------------------



Gtr I
--------------------|----------------|
--8--8--8--8--8--8--|--11--8--10--8--|
--------------------|----------------|
--------------------|----------------|
--------------------|----------------|
--------------------|----------------|

Gtr II
--------------------|--------------|
--------------------|--------------|
--------------------|--------------|
--------------------|--------------|
--5--5--5--5--5--5--|--7--7--8--8--|
--3--3--3--3--3--3--|--5--5--6--6--|
pm-------------------------------

Gtr I
--------------------|-----------------13----------14--|
--8--8--8--8--8--8--|--11--8--10--10------10--10------|
--------------------|---------------------------------|
--------------------|---------------------------------|
--------------------|---------------------------------|
--------------------|---------------------------------|

Gtr II
--------------------|--------------------------|
--------------------|--------------------------|
--------------------|--------------------------|
--------------------|--------------------------|
--5--5--5--5--5--5--|--8--8--7--7--7--7--7--7--|
--3--3--3--3--3--3--|--6--6--5--5--5--5--5--5--|
pm-------------------------------------------

Gtr I
----------------------10----------|----------------|
--10--10--------------------------|--11--8--10--8--|
----------11--11--11------11--11--|----------------|
----------------------------------|----------------|
----------------------------------|----------------|
----------------------------------|----------------|

Gtr II
--------------------------|-------------|
--------------------------|-------------|
--------------------------|-------------|
--------------------------|--------8----|
--7--7--4--4--4--4--4--4--|--------6----|
--5--5--2--2--2--2--2--2--|--6--8-------|
pm----------------------



--------------------|--------------|--------------------|
--------------------|--------------|--------------------|
--------------------|--------------|--------------------|
--------------------|--------------|--------------------|
--5--5--5--5--5--5--|--7--7--8--8--|--5--5--5--5--5--5--|
--3--3--3--3--3--3--|--5--5--6--6--|--3--3--3--3--3--3--|
   
--------------------------|--------------------------|---------------|
--------------------------|--------------------------|---------------|
--------------------------|--------------------------|---------------|
--------------------------|--------------------------|---------------|
--8--8--7--7--7--7--7--7--|--7--7--4--4--4--4--4--4--|--------[6]----|
--6--6--5--5--5--5--5--5--|--5--5--2--2--2--2--2--2--|--6--8---------|


--------------------|--------------|--------------------|
--------------------|--------------|--------------------|
--------------------|--------------|--------------------|
--------------------|--------------|--------------------|
--5--5--5--5--5--5--|--7--7--8--8--|--5--5--5--5--5--5--|
--3--3--3--3--3--3--|--5--5--6--6--|--3--3--3--3--3--3--|
   
--------------------------|--------------------------|---------------|
--------------------------|--------------------------|---------------|
--------------------------|--------------------------|---------------|
--------------------------|--------------------------|---------------|
--8--8--7--7--7--7--7--7--|--7--7--4--4--4--4--4--4--|--------[6]----|
--6--6--5--5--5--5--5--5--|--5--5--2--2--2--2--2--2--|--6--8---------|


--------------------|--------------|--------------------|
--------------------|--------------|--------------------|
--------------------|--------------|--------------------|
--------------------|--------------|--------------------|
--5--5--5--5--5--5--|--7--7--8--8--|--5--5--5--5--5--5--|
--3--3--3--3--3--3--|--5--5--6--6--|--3--3--3--3--3--3--|

--------------------------|--------------------------|--------------|
--------------------------|--------------------------|--------------|
--------------------------|--------------------------|--------------|
--------------------------|--------7--7--7--7--7--7--|--7--7--7--7--|
--8--8--8--8--8--8--8--8--|--8--8--5--5--5--5--5--5--|--5--5--5--5--|
--6--6--6--6--6--6--6--6--|--6--6--------------------|--------------|


--------------------|--------------|--------------------|
--------------------|--------------|--------------------|
--------------------|--------------|--------------------|
--------------------|--------------|--------------------|
--5--5--5--5--5--5--|--7--7--8--8--|--5--5--5--5--5--5--|
--3--3--3--3--3--3--|--5--5--6--6--|--3--3--3--3--3--3--|
   
--------------------------|--------------------------|---------------|
--------------------------|--------------------------|---------------|
--------------------------|--------------------------|---------------|
--------------------------|--------------------------|---------------|
--8--8--7--7--7--7--7--7--|--7--7--4--4--4--4--4--4--|--------[6]----|
--6--6--5--5--5--5--5--5--|--5--5--2--2--2--2--2--2--|--6--8---------|
                                 pm----------------

Добавлено: 06.06.2012
Другие материалы по этой песне:

Страница создана 06.06.2012
http://primanota.ru/dillinger-escape-plan/horse-hunter-chords.htm
Привет, Гость.
Предлагаем пройти революционный курс по гитаре.
Подарок от PrimaNota.Ru, забирай!