PrimaNota.ru - самый крупный в мире бесплатный архив песенных текстов, аккордов, табулатур и нот


Dillinger Escape Plan - One Of Us Is The Killer - таба, видео

Регистрация Запомнить меня
Войти через:  Facebook Google Twitter Vk Yandex Mail.ru

Dillinger Escape Plan - One Of Us Is The Killer - таба, видео

Печатать
Просмотров: 445
Уроки эстрадного вокала в Санкт-Петербурге
Авторы музыки: Ben Weinman
Авторы текста: Greg Puciato
-------------------------------------------------------------------------------
                             SONG NAME - Band Name
-------------------------------------------------------------------------------
Tabbed by:Jainsley
E-mail: ainsley.josh@icloud.com

Tuning: Drop D


  INTRO/PRE 2nd VERSE

E|-----------------------------------------------9------------------9------------------------------|
B|----------0-0-0--------------0---0-----------7---7--------------7---7-------------------0--0-----|
G|--------5-------5----------5-------5------10-------10---10---10-------10---10---------5------5---|
D|------7-----------7------7-----------7--8-------------8----8-------------8----------7----------7-|
A|-0------------------0---------------------------------------------------------0------------------|
D|-------------------------------------------------------------------------------------------------|


  VERSE

E|---------------------------------         E|---------------------------------|
B|---0---0-0---1-----0---0-0---1---         B|---0---0-0---1-----0-----0-----1-|
G|---2---2-2---2-2---2---2-2---2-2-         G|---2---2-2---2-2---2-----2-----2-|
D|---------------2---------------2-         D|-3---3-----3---3-1---1-1---1-1-1-|
A|-0---0-----0-----0---0-----0-----         A|---------------------------------|
D|--------------------------------- (x2)    D|---------------------------------|


  CHORUS

E|-0-0-0-0-0-0-0-0-0--0--0--0---0-0-0-0-0-0-0-0-0--0000-0---1-1-1-1-1-1-1-1-1--1--1--1---0-0-0-0-0-0-0-0-0-|
B|-0-0-0-0-0-0-0-0-0--0--0--0---0-0-0-0-0-0-0-0-0--0000-0---1-1-1-1-1-1-1-1-1--1--1--1---2-2-2-2-2-2-2-2-2-|
G|-2-2-2-2-2-2-2-2-2--2--2--2---2-2-2-2-2-2-2-2-2--2222-2---2-2-2-2-2-2-2-2-2--2--2--2---2-2-2-2-2-2-2-2-2-|
D|-2-2-2-2-2-2-2-2-2--2--2--2---2-2-2-2-2-2-2-2-2--2222-2---3-3-3-3-3-3-3-3-3--3--3--3---1-1-1-1-1-1-1-1-1-|
A|-0-0-0-0-0-0-0-0-0--0--0--0---0-0-0-0-0-0-0-0-0--0000-0--------------------------------------------------|
D|----------------------------------------------------------3-3-3-3-3-3-3-3-3--3--3--3---1-1-1-1-1-1-1-1-1-|(x2)

  BRIDGE

E|------------------------------------------------|
B|------------------------------------------------|
G|------------------------------------------------|
D|-0--1--3--2--5--6--7--9-8-7--11--7--12--8--7--6-|
A|-0--1--3--2--5--6--7--9-8-7--11--7--12--8--7--6-|
D|-0--1--3--2--5--6--7--9-8-7--11--7--12--8--7--6-| (x3)




************************************

| /   slide up
| \   slide down
| h   hammer-on
| p   pull-off
| ~   vibrato
| +   harmonic
| x   Mute note
| b   Bend
| pb  Pre-bend
| br  Bend release
| pbr Pre-bend release
| brb Bend release bend

************************************
Добавлено: 23.11.2014
Другие материалы по этой песне:
  • Аккорды и текст

Страница создана 23.11.2014
http://primanota.ru/dillinger-escape-plan/one-of-us-is-killer-chords.htm
Привет, Гость.
Предлагаем пройти революционный курс по гитаре.
Подарок от PrimaNota.Ru, забирай!