PrimaNota.ru - самый крупный в мире бесплатный архив песенных текстов, аккордов, табулатур и нот


Dillinger Escape Plan - Nong Eye Gong - таба, видео

Регистрация Запомнить меня
Войти через:  Facebook Google Twitter Vk Yandex Mail.ru

Dillinger Escape Plan - Nong Eye Gong - таба, видео

Печатать
Просмотров: 140
----------------------------------------------------------------------------
                            Nong Eye Gong - The Dillinger Escape Plan
-------------------------------------------------------------------------------
Tabbed by: Missmachine00
Email:
Correct version

Tuning:Standard
Intro
:the timing is hard but follow what the lyrics are doing:
e|-----------------------------------------------|
B|-----------------------------------------------|
G|-----------------------------------------------|
D|-3--3-3--3--3-3-3-3-3-33-3-3-3-3-3-33----------|
A|-2--2-2--2--2-2-2-2-2-22-2-2-2-2-2-22----------|
E|-1--1-1--1--1-1-1-1-1-11-1-1-1-1-1-11----------|


e|-------------------| Repeat 4 times quickly, then play the intro part but shorter.
B|-------------------|
G|-------------------|
D|-2--8--------------|
A|-2--6--------------|
E|-0------0-3-6------|


 " You voice is sound of nothing"
e|--------------------|
B|--------------------|
G|----8---------------|repeat 4 times
D|-2--8--2------------|
A|-2--6--2--5-8-------|
E|-0-----0--3-6-------|
Then
e|------------------|
B|------------------|
G|------------------|
D|-2~--5~--8~-------|
A|-2~--5~--8~-------|
E|-0~--3~--6~-------|

this is the part from Nong Eye Gong :27-:37
you just repeat this part over, i fix these two tabs later, i just put these on hear 
it helps me see what i am doing as i tab it out listening to the same part over and over.
Nong Eye Gong :27-:37 (repeat this a couple of times)
e|----------------------------------------------------------|
B|----------------------------------------------------------|
G|---7-----7-6-8-7-----6-8-7--7----6-8-7----7-6-8--7--------|
D|-----8-7---------8-7---------8-7------8-7-----------------|
A|----------------------------------------------------------|
E|----------------------------------------------------------|

:then this fast transition:
e|----------------|
B|----------------|
G|------7---------|
D|-3333-6---------|
A|-2222-5---------|
E|-1111-----------|


"Watching the hour hand change, destroyer of the past"
e|-----------------------------------------------|
B|-----------------------------------------------|
G|-----------------------------------------------|
D|-3--3-3--3--3-3-3-3-3-33-3-3-3-3-3-33----------|
A|-2--2-2--2--2-2-2-2-2-22-2-2-2-2-2-22----------|
E|-1--1-1--1--1-1-1-1-1-11-1-1-1-1-1-11----------|

Ben also does a little guitar effect which makes it impossible to hear on ire works,but 
chord can heard on live videos.
:then this fast transition again:
e|----------------|
B|----------------|
G|------7---------|
D|-3333-6---------|
A|-2222-5---------|
E|-1111-----------|
 then repeat this part again also
e|----------------------------------------------------------|
B|----------------------------------------------------------|
G|---7-----7-6-8-7-----6-8-7--7----6-8-7----7-6-8--7--------|
D|-----8-7---------8-7---------8-7------8-7-----------------|
A|----------------------------------------------------------|
E|----------------------------------------------------------|

this should be all of it..

__________________
Добавлено: 31.03.2012
Другие материалы по этой песне:
  • Аккорды и текст

Страница создана 31.03.2012
http://primanota.ru/dillinger-escape-plan/nong-eye-gong-chords.htm
Привет, Гость.
Предлагаем пройти революционный курс по гитаре.
Подарок от PrimaNota.Ru, забирай!