PrimaNota.ru - самый крупный в мире бесплатный архив песенных текстов, аккордов, табулатур и нот


Dillinger Escape Plan - 43 Burnt - текст песни, таба, видео

Регистрация Запомнить меня
Войти через:  Facebook Google Twitter Vk Yandex Mail.ru

Dillinger Escape Plan - 43 Burnt - текст песни, таба, видео

Печатать
Просмотров: 179
THIS IS NOT MY TAB!!!
i found this through 911tabs and resized it on here


e|----------|
B|-17-------|
G|-20-------|
D|----------|
A|--------0-|
E|--------0-|
 
e|------------------------------------------|
B|-18--18--18--18----------18--18-----------|
G|-21--21--21--21----------21--21-----------|
D|-----------------19191919--------19191919-|
A|------------------------------------------|
E|------------------------------------------|
 
e|--------------------------------------------|
B|--------------------------------------------|
G|-88886-6-88886-6-88886-6-6-6-6-88886-6-8888-| 
D|-XXXXX-X-XXXXX-X-XXXXX-X-X-X-X-XXXXX-X-XXXX-|
A|-55555-5-55555-5-55555-5-5-5-5-55555-5-5555-|
E|--------------------------------------------|

e|-------------------------------|---------------------|
B|-------------------------------|---------------------|
G|-8-8-6-6-88886-6-88886-6-6-6-6-|-88886-6-88886-6-6-6-|
D|-X-X-X-X-XXXXX-X-XXXXX-X-X-X-X-|-XXXXX-X-XXXXX-X-X-X-|
A|-5-5-5-5-55555-5-55555-5-5-5-5-|-55555-5-55555-5-5-5-|
E|-------------------------------|---------------------|

e|-----------------------|--------------|
B|-----------------------|--------------|
G|-88886-6-88886-6-6-6-6-|-88886-6-8888-|
D|-XXXXX-X-XXXXX-X-X-X-X-|-XXXXX-X-XXXX-|
A|-55555-5-55555-5-5-5-5-|-55555-5-5555-|
E|-----------------------|--------------|

e|-----------------------------12------------------------|
B|--------------------------------14---------------------|
G|---------13-13------11-13-14---------13-13---14-14--14-|
D|-13-13---11-11---11------------------11-11---14-14--14-|
A|-11-11---11-11-----------------------11-11---12-12--12-|
E|-11-11---9--9--------------------------------12-12--12-|
 
e|-----------------------------|-----------|
B|-----------------------------|-----------|
G|-6-6-6-6-88886-6-88886-6-6-6-|-----------|
D|-X-X-X-X-XXXXX-X-XXXXX-X-X-X-|-7--5-6--3-|
A|-5-5-5-5-55555-5-55555-5-5-5-|-7--5-6--3-|
E|-----------------------------|-5--3-4--1-|

e|---------------------|---------------------|---------------------|--------------------|
B|---------11----------|---------14----------|---------11----------|---------10---------|
G|------12----15-------|------15----18-------|------12----15-------|------11----14------|
D|---13----------13----|---16----------16----|---13----------13----|---12----------12---|
A|14----------------12-|17----------------15-|14----------------12-|13----------------11|
E|---------------------|---------------------|---------------------|--------------------|

e|------------------------------------------------|
B|------------------------------------------------|
G|---------------------------------------------14-|
D|---------------------13----------13-16-13-14----|
A|---------12-15-12-13----15-12-13----------------|
E|14-11-12----------------------------------------|

e|---------------------|---------------------|---------------------|
B|---------11----------|---------10----------|---------------------|
G|------12----15-------|------11----14-------|---------------------|
D|---13----------13----|---12----------12----|--rest-this measure--|
A|14----------------12-|13----------------11-|---------------------|
E|---------------------|---------------------|---------------------|


e|---------------------|---------------------|---------------------|--------------------|
B|---------11----------|---------14----------|---------11----------|---------10---------|
G|------12----15-------|------15----18-------|------12----15-------|------11----14------|
D|---13----------13----|---16----------16----|---13----------13----|---12----------12---|
A|14----------------12-|17----------------15-|14----------------12-|13----------------11|
E|---------------------|---------------------|---------------------|--------------------|

e|---------------------|---------------------|---------------------|
B|---------11----------|---------10----------|---------------------|
G|------12----15-------|------11----14-------|---------------------|
D|---13----------13----|---12----------12----|--rest-this measure--|
A|14----------------12-|13----------------11-|---------------------|
E|---------------------|---------------------|---------------------|

e|---------------------|---------------------|---------------------|--------------------|
B|---------11----------|---------14----------|---------11----------|---------10---------|
G|------12----15-------|------15----18-------|------12----15-------|------11----14------|
D|---13----------13----|---16----------16----|---13----------13----|---12----------12---|
A|14----------------12-|17----------------15-|14----------------12-|13----------------11|
E|---------------------|---------------------|---------------------|--------------------|

e|---------------------------------------|--------------------------------|
B|---------------------------------------|--------------16--------14------|
G|---------------------------------14----|------14171415--14151617--171615|
D|---------------13--------13161314------|161314--------------------------|
A|-------12151213---151213---------------|--------------------------------|
E|141112---------------------------------|--------------------------------|
 
e|-------------------------------------------------------------------|
B|-------------------------------------------------------------------|
G|-----14----14------------------------14----14----------------------|
D|-----13----13------------------------13----13----------------------|
A|-0-0-120-0-120-0---------0-3-----0-0-120-0-120-0-1--0--1--4--3--0--|
E|-0-0---0-0---0-0-0-2-3-4-----4-3-0-0---0-0---0-0-1--0--1--4--3--0--|

e|----------------------------------------------------|
B|----------------------------------------------------|
G|-----14----14---------14----14----------------------|
D|-----13----13---------13----13----------------------|
A|-0-0-120-0-120-0--0-0-120-0-120-0-1--0--1--4--3--0--|
E|-0-0---0-0---0-0--0-0---0-0---0-0-1--0--1--4--3--0--|

e|-------------|-------------|-------------|
B|-------------|-6-----------|-6-----------|
G|-------------|-4-----------|-4-----------|
D|-------------|-3-----------|-3-----------|
A|-1-0-1-4-3-0-|---0-1-4-3-0-|---0-1-4-3-0-|
E|-1-0-1-4-3-0-|---0-1-4-3-0-|---0-1-4-3-0-|


e|-------------|-----------------|---------------|
B|-6-5-6-9-8-5-|-6-5-6-5-6-9-8-5-|-6-5-6-9-8-9-8-|
G|-X-X-X-X-X-X-|-X-X-X-X-X-X-X-X-|-X-X-X-X-X-X-X-|
D|-4-3-4-7-6-3-|-4-3-4-3-4-7-6-3-|-4-3-4-7-6-7-6-|
A|-------------|-----------------|---------------|
E|-------------|-----------------|---------------|

e|-----------|-----|-----------|----------|
B|-6-5-6-9-8-|-----|-6-5-6-9-8-|----------|
G|-X-X-X-X-X-|-7---|-X-X-X-X-X-|-7----7---|
D|-4-3-4-7-6-|---6-|-4-3-4-7-6-|---6----6-|
A|-----------|-----|-----------|----------|
E|-----------|-----|-----------|----------|

e|-------------|-------------|-------------|
B|-6-5-6-9-8-5-|-6-5-6-9-8-5-|-6-5-6-9-8-5-|
G|-X-X-X-X-X-X-|-X-X-X-X-X-X-|-X-X-X-X-X-X-|
D|-4-3-4-7-6-3-|-4-3-4-7-6-3-|-4-3-4-7-6-3-|
A|-------------|-------------|-------------|
E|-------------|-------------|-------------|

e|-----------------|---------------|
B|-6-5-6-5-6-9-8-5-|-6-5-6-9-8-9-8-|
G|-X-X-X-X-X-X-X-X-|-X-X-X-X-X-X-X-|
D|-4-3-4-3-4-7-6-3-|-4-3-4-7-6-7-6-|
A|-----------------|---------------|
E|-----------------|---------------|

e|-----------|-----|-------|----------|
B|-6-5-6-9-8-|-----|-6-5-6-|----------|
G|-X-X-X-X-X-|-7---|-X-X-X-|-7----7---|
D|-4-3-4-7-6-|---6-|-4-3-4-|---6----6-|
A|-----------|-----|-------|----------|
E|-----------|-----|-------|----------|
 
e|------------------------|----------------------|
B|------------------------|----------------------|
G|-10---------7-----9-----|-10---------7---9-----|
D|----9-----8---8-----8---|----9-----8---8---8---|
A|------7-9-------9-----7-|------7-9-----------7-|
E|------------------------|----------------------|

e|------------------------|-------------------|
B|------------------------|-------------------|
G|-10---------7-----9-----|-10---------10-----|
D|----9-----8---8-----8---|----9-----8----9---|
A|------7-9-------9-----7-|------7-9--------8-|
E|------------------------|-------------------|

e|---------------------------------------------|
B|-----------------------8---10----------------|
G|-8---10-----8---10----------------8---10-----|
D|---7----8-----7----8-----7----8-----7----8---|
A|----------7----------7----------7----------7-|
E|---------------------------------------------|
 
e|-------------|
B|-------------|
G|-8--8--11-10-|
D|-7--7--10-9--|
A|-6--6--9--8--|
E|-------------|

e|-T----T---T----T----T----T----T----T----T----T----T----T----T----T----T--|
B|12-4-13-5------14-6------------------------------------------------------|
G|----------12-4------13-5------------------------------------13-5-12-4----|
D|-------------------------12-4-13-5-12-4-----------13-5-12-4--------------|
A|----------------------------------------13-5-12-4---------------------14-|
E|-------------------------------------------------------------------------|

e|-------------------------------------------------------------------|
B|-------------------------------------------------------------------|
G|-----14----14------------------------14----14----------------------|
D|-----13----13------------------------13----13----------------------|
A|-0-0-120-0-120-0---------0-3-----0-0-120-0-120-0-1--0--1--4--3--0--|
E|-0-0---0-0---0-0-0-2-3-4-----4-3-0-0---0-0---0-0-1--0--1--4--3--0--|
 
e|-----------------------------------|
B|-----------------------------------|
G|-----14----14---------14----14-----|
D|-----13----13---------13----13-----|
A|-0-0-120-0-120-0--0-0-120-0-120-0--|
E|-0-0---0-0---0-0--0-0---0-0---0-0--|

e|-------------|-------------|-------------|-------------|
B|-------------|-------------|-6-----------|-6-----------|
G|-------------|-------------|-X-----------|-X-----------|
D|-------------|-------------|-4-----------|-4-----------|
A|-1-0-1-4-3-0-|-1-0-1-4-3-0-|---0-1-4-3-0-|---0-1-4-3-0-|
E|-1-0-1-4-3-0-|-1-0-1-4-3-0-|---0-1-4-3-0-|---0-1-4-3-0-|


e|-------------|-----------------|---------------|-----------|
B|-6-5-6-9-8-5-|-6-5-6-5-6-9-8-5-|-6-5-6-9-8-9-8-|-6-5-6-9-8-|
G|-X-X-X-X-X-X-|-X-X-X-X-X-X-X-X-|-X-X-X-X-X-X-X-|-X-X-X-X-X-|
D|-4-3-4-7-6-3-|-4-3-4-3-4-7-6-3-|-4-3-4-7-6-7-6-|-4-3-4-7-6-| 
A|-------------|-----------------|---------------|-----------|
E|-------------|-----------------|---------------|-----------|

e|-------------|-------------|-------------|-------------|
B|-------------|-------------|-------------|-------------|
G|-------------|-------------|-------------|-------------|
D|-------------|-------------|-------------|-------------|
A|-0-1-0-1-4-3-|-0-1-0-1-4-3-|-0-1-0-1-4-3-|-0-1-0-1-4-3-|
E|-0-1-0-1-4-3-|-0-1-0-1-4-3-|-0-1-0-1-4-3-|-0-1-0-1-4-3-|

e|-------------|-------------|-------------|-------------|-------------|
B|-------------|-------------|-------------|-------------|-------------|
G|-------------|-------------|-------------|-------------|-------------|
D|-------------|-------------|-------------|-------------|-------------|
A|-0-1-0-1-4-3-|-0-1-0-1-4-3-|-0-1-0-1-4-3-|-1-0-1-4-3-0-|-1-0-1-4-3-0-|
E|-0-1-0-1-4-3-|-0-1-0-1-4-3-|-0-1-0-1-4-3-|-1-0-1-4-3-0-|-1-0-1-4-3-0-|

e|-------------------------|
B|-------------------------|
G|-------------------------|
D|-------------------------|
A|-1-1-1-1-1-1-1-1-1-1-1-1-|
E|-1-1-1-1-1-1-1-1-1-1-1-1-|
 
e|-------------|-------------|-------------|-------------|
B|-------------|-5-----------|-5-----------|-5-----------|
G|-------------|-X-----------|-X-----------|-X-----------|
D|-------------|-3-----------|-3-----------|-3-----------|
A|-1-0-1-4-3-0-|---0-1-4-3-0-|---0-1-4-3-0-|---0-1-4-3-0-|
E|-1-0-1-4-3-0-|---0-1-4-3-0-|---0-1-4-3-0-|---0-1-4-3-0-|

e|-------------|-----------------|---------------|-----------|
B|-------------|-----------------|---------------|-----------|
G|-------------|-----------------|---------------|-----------|
D|-------------|-----------------|---------------|-----------|
A|-1-0-1-4-3-0-|-1-0-1-0-1-4-3-0-|-1-0-1-4-3-4-3-|-1-0-1-4-3-|
E|-1-0-1-4-3-0-|-1-0-1-0-1-4-3-0-|-1-0-1-4-3-4-3-|-1-0-1-4-3-|


e|-------------|-------------|-------------|-------------|
B|-------------|-------------|-------------|-------------|
G|-------------|-------------|-------------|-------------|
D|-------------|-------------|-------------|-------------|
A|-1-0-1-4-3-0-|-1-0-1-4-3-0-|-1-0-1-4-3-0-|-1-0-1-4-3-0-|
E|-1-0-1-4-3-0-|-1-0-1-4-3-0-|-1-0-1-4-3-0-|-1-0-1-4-3-0-|

e|-------------|-------------|-------------|-------------|-------------|
B|-------------|-------------|-------------|-6-5-6-9-8-5-|-6-5-6-9-8-5-|
G|-------------|-------------|-------------|-X-X-X-X-X-X-|-X-X-X-X-X-X-|
D|-------------|-------------|-------------|-4-3-4-7-6-3-|-4-3-4-7-6-3-|
A|-1-0-1-4-3-0-|-1-0-1-4-3-0-|-1-0-1-4-3-0-|-------------|-------------|
E|-1-0-1-4-3-0-|-1-0-1-4-3-0-|-1-0-1-4-3-0-|-------------|-------------|

e|-------------------------|
B|-6-5-6-5-6-5-5-5-5-5-5-5-|
G|-X-X-X-X-X-X-X-X-X-X-X-X-|
D|-4-3-4-3-4-3-3-3-3-3-3-3-|
A|-------------------------|
E|-------------------------|

e|----------|
B|-16-------|
G|-19-------|
D|----and---|
A|--------0-|
E|--------0-|
Добавлено: 13.04.2012
Другие материалы по этой песне:

Страница создана 22.03.2012
http://primanota.ru/dillinger-escape-plan/43-burnt-chords.htm
Привет, Гость.
Предлагаем пройти революционный курс по гитаре.
Подарок от PrimaNota.Ru, забирай!