PrimaNota.ru - самый крупный в мире бесплатный архив песенных текстов, аккордов, табулатур и нот


Dillinger Escape Plan - Milk Lizard - текст песни, таба, бас-таба, видео

Регистрация Запомнить меня
Войти через:  Facebook Google Twitter Vk Yandex Mail.ru

Dillinger Escape Plan - Milk Lizard - текст песни, таба, бас-таба, видео

Печатать
Просмотров: 241
The Dillinger Escape Plan - Milk Lizard

THIS WAS TABBED BY da-club AS A GUITAR-PRO TAB, NOW THIS IS FOR PEOPLE WHO DONT HAVE GUITAR PRO.



     E     E  E  E  E  E  E  E  E     E  E  E  E  E  E  E  E   
E||-----|--------------------------|--------------------------|
B||-----|--------------------------|--------------------------|
G||-----|--------------------------|--------------------------|
D||-----|--------------------------|--------------------------|
A||--6--|--L-----5-----2-----------|--5-----2--------4--L--6--|
E||--4--|--L--4-----4-----4--4--4--|-----4-----4--4--2--L--4--|


  E  E  E  E  E  E  E  E     E  E  E  E  E  E  E  E   
--------------------------|--------------------------|
--------------------------|--------------------------|
--------------------------|--------------------------|
--------------------------|--------------------------|
--L-----5-----2-----------|--5-----2--------4--L--6--|
--L--4-----4-----4--4--4--|-----4-----4--4--2--L--4--|


  E  E  E  E  E  E  E  E     E  E  E  E  E  E  E  E   
--------------------------|--------------------------|
--------------------------|--------------------------|
--------------------------|--------------------------|
--------------------------|--------------------------|
--L-----5-----2-----------|--5--4--2--------4--L--6--|
--L--4-----4-----4--4--4--|-----------4--3--2--L--4--|


  E  E  E  E  E  E  E  E     E  E.  S E.  S E.  S E   
--------------------------|--------------------------|
--------------------------|--------------------------|
--------------------------|--------------------------|
--------------------------|--------------------------|
--L-----5-----2-----------|--5--4-----4-----5-----6--|
--L--4-----4-----4--4--4--|-----2-----2-----3-----4--|


  E  E  E  E  E  E  E  E     E  E  E  E  E  E  E  E   
--------------------------|--------------------------|
--------------------------|--------------------------|
--------------------------|--------------------------|
--------------------------|--------------------------|
--L-----5-----2-----------|--5-----2--------4--L--6--|
--L--4-----4-----4--4--4--|-----4-----4--4--2--L--4--|


  E  E  E  E  E  E  E  E     E  E  E  E  E  E  E  E   
--------------------------|--------------------------|
--------------------------|--------------------------|
--------------------------|--------------------------|
--------------------------|--------------------------|
--L-----5-----2-----------|--5-----2--------4--L--6--|
--L--4-----4-----4--4--4--|-----4-----4--4--2--L--4--|


  E  E  E  E  E  E  E  E     E  E  E  E  E  E  E  E   
--------------------------|--------------------------|
--------------------------|--------------------------|
--------------------------|--------------------------|
--------------------------|--------------------------|
--L-----5-----2-----------|--5-----2--------4--L--6--|
--L--4-----4-----4--4--4--|-----4-----4--4--2--L--4--|


  E  E  E  E  E  E  E  E     E  E.  S E.  S E.  S E   
--------------------------|--------------------------|
--------------------------|--------------------------|
--------------------------|--------------------------|
--------------------------|--------------------------|
--L-----5-----2-----------|--5--4-----4-----5-----6--|
--L--4-----4-----4--4--4--|-----2-----2-----3-----4--|


  E  E  E  E  E  E  E  E     E  E  E  E  E  E  E  E   
--------------------------|--------------------------|
--------------------------|--------------------------|
--------------------------|--------------------------|
--------------------------|--------------------------|
--L-----5-----2-----------|--5-----2--------4--L--6--|
--L--4-----4-----4--4--4--|-----4-----4--4--2--L--4--|


  E  E  E  E  E  E  E  E     E  E  E  E  E  E  E  E   
--------------------------|--------------------------|
--------------------------|--------------------------|
--------------------------|--------------------------|
--------------------------|--------------------------|
--L-----5-----2-----------|--5-----2--------4--L--6--|
--L--4-----4-----4--4--4--|-----4-----4--4--2--L--4--|


  E  E  E  E  E  E  E  E     E  E  E  E  E  E  E  E   
--------------------------|--------------------------|
--------------------------|--------------------------|
--------------------------|--------------------------|
--------------------------|--------------------------|
--L-----5-----2-----------|--5-----2--------4--L--6--|
--L--4-----4-----4--4--4--|-----4-----4--4--2--L--4--|


  E  E  E  E  E  E  E  E     E  E.  S E.  S E.  S E     W                 
--------------------------|--------------------------|-------------------|
--------------------------|--------------------------|-------------------|
--------------------------|--------------------------|-------------------|
--------------------------|--------------------------|-------------------|
--L-----5-----2-----------|--5--4-----4-----5-----6--|-------------------|
--L--4-----4-----4--4--4--|-----2-----2-----3-----4--|-------------------|


  W                   W                   W                   W                 
-------------------|-------------------|-------------------|-------------------|
-------------------|-------------------|-------------------|-------------------|
-------------------|-------------------|-------------------|-------------------|
-------------------|-------------------|-------------------|-------------------|
-------------------|-------------------|-------------------|-------------------|
-------------------|-------------------|-------------------|-------------------|


  W                   W                   W                                     
-------------------|-------------------|-------------------|-------------------|
-------------------|-------------------|-------------------|-------------------|
-------------------|-------------------|-------------------|-------------------|
-------------------|-------------------|-------------------|-------------------|
-------------------|-------------------|-------------------|-------------------|
-------------------|-------------------|-------------------|-------------------|


-------------------|-------------------|-------------------|-------------------|
-------------------|-------------------|-------------------|-------------------|
-------------------|-------------------|-------------------|-------------------|
-------------------|-------------------|-------------------|-------------------|
-------------------|-------------------|-------------------|-------------------|
-------------------|-------------------|-------------------|-------------------|


                                          E  E  E  E  E  E  E  E   
-------------------|-------------------|--------------------------|
-------------------|-------------------|--------------------------|
-------------------|-------------------|--------------------------|
-------------------|-------------------|-----------------------4--|
-------------------|-------------------|-----------------------4--|
-------------------|-------------------|-----------------------2--|


  E  E  E  E  E  E  E  E     E  E  E  E  E  E  E  E   
--------------------------|--------------------------|
--------------------------|--------------------------|
--------------------------|--------------------------|
--L--4--4--4--4--4--4--4--|--4--4--4--4--4--4--4-----|
--L--4--4--4--4--4--4--4--|--4--4--4--4--4--4--4--6--|
--L--2--2--2--2--2--2--2--|--2--2--2--2--2--2--2--4--|


  E  E  E  E  E  E  E  E     E  E  E  E  E  E  E  E   
--------------------------|--------------------------|
--------------------------|--------------------------|
--------------------------|--------------------------|
--------------------------|--------------------------|
--L-----5-----2-----------|--5-----2--------4--L--6--|
--L--4-----4-----4--4--4--|-----4-----4--4--2--L--4--|


  E  E  E  E  E  E  E  E     E  E  E  E  E  E  E  E   
--------------------------|--------------------------|
--------------------------|--------------------------|
--------------------------|--------------------------|
--------------------------|--------------------------|
--L-----5-----2-----------|--5-----2--------4--L--6--|
--L--4-----4-----4--4--4--|-----4-----4--4--2--L--4--|


  E  E  E  E  E  E  E  E     E  E  E  E  E  E  E  E   
--------------------------|--------------------------|
--------------------------|--------------------------|
--------------------------|--------------------------|
--------------------------|--------------------------|
--L-----5-----2-----------|--5-----2--------4--L--6--|
--L--4-----4-----4--4--4--|-----4-----4--4--2--L--4--|


  E  E  E  E  E  E  E  E     E  E.  S E.  S E.  S E   
--------------------------|--------------------------|
--------------------------|--------------------------|
--------------------------|--------------------------|
--------------------------|--------------------------|
--L-----5-----2-----------|--5--4-----4-----5-----6--|
--L--4-----4-----4--4--4--|-----2-----2-----3-----4--|


  E  E  E  E  E  E  E  E     E  E  E  E  E  E  E  E   
--------------------------|--------------------------|
--------------------------|--------------------------|
--------------------------|--------------------------|
--------------------------|--------------------------|
--L-----5-----2-----------|--5-----2--------4--L--6--|
--L--4-----4-----4--4--4--|-----4-----4--4--2--L--4--|


  E  E  E  E  E  E  E  E     E  E    E   E   E   E   E   E    
--------------------------|-----4S--16--16--16--16--16--16s--|
--------------------------|----------------------------------|
--------------------------|----------------------------------|
--------------------------|----------------------------------|
--L-----5-----2-----------|--5-------------------------------|
--L--4-----4-----4--4--4--|----------------------------------|


  S S E  E  E  E  E  E  E     E  E  E  E  E  E  E  E   
--L-4----------------------|--------------------------|
---------------------------|--------------------------|
---------------------------|--------------------------|
---------------------------|--------------------------|
---------5-----2-----------|--5-----2--------4--L--6--|
------4-----4-----4--4--4--|-----4-----4--4--2--L--4--|


  E  E  E  E  E  E  E  E     E  E.  S E.  S E.  S E     W                 
--------------------------|--------------------------|-------------------|
--------------------------|--------------------------|-------------------|
--------------------------|--------------------------|-------------------|
--------------------------|--------------------------|-------------------|
--L-----5-----2-----------|--5--4-----4-----5-----6--|-------------------|
--L--4-----4-----4--4--4--|-----2-----2-----3-----4--|-------------------|


  W                   W                   W                   W                 
-------------------|-------------------|-------------------|-------------------|
-------------------|-------------------|-------------------|-------------------|
-------------------|-------------------|-------------------|-------------------|
-------------------|-------------------|-------------------|-------------------|
-------------------|-------------------|-------------------|-------------------|
-------------------|-------------------|-------------------|-------------------|


  W                   W                   W                                     
-------------------|-------------------|-------------------|-------------------|
-------------------|-------------------|-------------------|-------------------|
-------------------|-------------------|-------------------|-------------------|
-------------------|-------------------|-------------------|-------------------|
-------------------|-------------------|-------------------|-------------------|
-------------------|-------------------|-------------------|-------------------|


-------------------|-------------------|-------------------|-------------------|
-------------------|-------------------|-------------------|-------------------|
-------------------|-------------------|-------------------|-------------------|
-------------------|-------------------|-------------------|-------------------|
-------------------|-------------------|-------------------|-------------------|
-------------------|-------------------|-------------------|-------------------|


                                          E  E  E  E  E  E  E  E   
-------------------|-------------------|--------------------------|
-------------------|-------------------|--------------------------|
-------------------|-------------------|--------------------------|
-------------------|-------------------|-----------------------4--|
-------------------|-------------------|-----------------------4--|
-------------------|-------------------|-----------------------2--|


  E  E  E  E  E  E  E  E     E  E  E  E  E  E  E  E     W                 
--------------------------|--------------------------|-------------------|
--------------------------|--------------------------|-------------------|
--------------------------|--------------------------|--4----------------|
--L--4--4--4--4--4--4--4--|--4--4--4--4--4--4--4--4--|--x----------------|
--L--4--4--4--4--4--4--4--|--4--4--4--4--4--4--4--4--|--2----------------|
--L--2--2--2--2--2--2--2--|--2--2--2--2--2--2--2--2--|-------------------|


  W                   W                   W                   W                 
-------------------|-------------------|-------------------|-------------------|
-------------------|-------------------|-------------------|-------------------|
--L----------------|-------------------|-------------------|-------------------|
-------------------|--5----------------|--L----------------|--2----------------|
--L----------------|--x----------------|-------------------|--x----------------|
-------------------|--3----------------|--L----------------|--0----------------|


  W                   W                   W                   W                 
-------------------|-------------------|-------------------|-------------------|
-------------------|-------------------|-------------------|-------------------|
-------------------|-------------------|-------------------|--4----------------|
--L----------------|--5----------------|--4----------------|--x----------------|
-------------------|--x----------------|--x----------------|--2----------------|
--L----------------|--3----------------|--2----------------|-------------------|


  H        H           W                   H        H         
--------------------|-------------------|--------------------|
--------------------|-------------------|--------------------|
--6--------7--------|--4----------------|--6--------7--------|
--x--------x--------|--x----------------|--x--------x--------|
--4--------5--------|--2----------------|--4--------5--------|
--------------------|-------------------|--------------------|


  W                    H         H            W                 
-------------------|----------------------|--------------------|
-------------------|----------------------|--------------------|
--9----------------|--11--------12--------|--16----------------|
--x----------------|---x---------x--------|---x----------------|
--7----------------|---9--------10--------|--14----------------|
-------------------|----------------------|--------------------|


   H.           E  E     E  E  E  E  E  E  E  E     E  E  E  E  E  E  E  E   
----------------------|--------------------------|--------------------------|
----------------------|--------------------------|--------------------------|
--15------------L-----|--------------------------|--------------------------|
---x------------------|--------------------------|--------------------------|
--13------------L--6--|--L-----5-----2-----------|--5-----2--------4--L--6--|
-------------------4--|--L--4-----4-----4--4--4--|-----4-----4--4--2--L--4--|


  E  E  E  E  E  E  E  E     E  E  E  E  E  E  E  E   
--------------------------|--------------------------|
--------------------------|--------------------------|
--------------------------|--------------------------|
--------------------------|--------------------------|
--L-----5-----2-----------|--5-----2--------4--L--6--|
--L--4-----4-----4--4--4--|-----4-----4--4--2--L--4--|


  E  E  E  E  E  E  E  E     E  E  E  E  E  E  E  E   
--------------------------|--------------------------|
--------------------------|--------------------------|
--------------------------|--------------------------|
--------------------------|--------------------------|
--L-----5-----2-----------|--5--4--2--------4--L--6--|
--L--4-----4-----4--4--4--|-----------4--3--2--L--4--|


  E  E  E  E  E  E  E  E     E  Q    H        E     E  E  E  E  E  E  E  E   
--------------------------|----------------------|--------------------------|
--------------------------|----------------------|--------------------------|
--------------------------|----------------------|--------------------------|
--------------------------|----------------------|--------------------------|
--L-----5-----2-----------|-------------------6--|--L-----5-----2-----------|
--L--4-----4-----4--4--4--|-------------------4--|--L--4-----4-----4--4--4--|


  E  E  E  E  E  E  E  E     E  E  E  E  E  E  E  E   
--------------------------|--------------------------|
--------------------------|--------------------------|
--------------------------|--------------------------|
--------------------------|--------------------------|
--5-----2--------4--L--6--|--L-----5-----2-----------|
-----4-----4--4--2--L--4--|--L--4-----4-----4--4--4--|


  E  E  E  E  E  E  E  E     E  E  E  E  E  E  E  E   
--------------------------|--------------------------|
--------------------------|--------------------------|
--------------------------|--------------------------|
--------------------------|--------------------------|
--5-----2--------4--L--6--|--L-----5-----2-----------|
-----4-----4--4--2--L--4--|--L--4-----4-----4--4--4--|


  E  E  E  E  E  E  E  E     E  E  E  E  E  E  E  E   
--------------------------|--------------------------|
--------------------------|--------------------------|
--------------------------|--------------------------|
--------------------------|--------------------------|
--5-----2--------4--L--6--|--L-----5-----2-----------|
-----4-----4--4--2--L--4--|--L--4-----4-----4--4--4--|


  E  E.  S E.  S E.  S E     E  E  E  E  E  E  E  E   
--------------------------|--------------------------|
--------------------------|--------------------------|
--------------------------|--------------------------|
-----4-----4-----5--------|--------------------------|
--5--4-----4-----5-----6--|--L-----5-----2-----------|
-----2-----2-----3-----4--|--L--4-----4-----4--4--4--|


  E  E  E  E  E  E  E  E     E  E  E  E  E  E  E  E    
--------------------------|---------------------------|
--------------------------|---------------------------|
--------------------------|---------------------------|
--------------------------|---------------------------|
--5-----2--------4--L--6--|--L-----5-----2------------|
-----4-----4--4--2--L--4--|--L--4-----4-----4--4--4s--|


                                            SH                              
   E.   S   S  S  S   S  S  S   S  S  E     E      E  E  E  E  E  E  E  E   
------------------------------------------------|--------------------------|
------------------------------------------------|--------------------------|
------------------------------------------------|--------------------------|
-------12p-11p-9--------------------------------|--------------------------|
-----------------12p-11p-9---------------<>11~--|--L-----5-----2-----------|
--10-----------------------12p-10p-9-10---------|-----4-----4-----4--4--4--|


  E  E  E  E  E  E  E  E     E  E  E  E  E  E  E  E   
--------------------------|--------------------------|
--------------------------|--------------------------|
--------------------------|--------------------------|
--------------------------|--------------------------|
--5-----2--------4--L--6--|--L-----5-----2-----------|
-----4-----4--4--2--L--4--|--L--4-----4-----4--4--4--|


                                             <                           
  E  E.  S E.  S E.  S E      Q    E  E  E   Q.        W                 
---------------------------|------------------------|-------------------|
---------------------------|------------------------|-------------------|
---------------------------|----------------16------|--4----------------|
-----4-----4-----5-----6s--|--x---------------------|--x----------------|
--5--4-----4-----5-----6s--|--x---------------------|--2----------------|
-----2-----2-----3-----4s--|--x---------------------|-------------------|


  W                   W                   W                   W                 
-------------------|-------------------|-------------------|-------------------|
-------------------|-------------------|-------------------|-------------------|
--L----------------|-------------------|-------------------|-------------------|
-------------------|--5----------------|--L----------------|--2----------------|
--L----------------|--x----------------|-------------------|--x----------------|
-------------------|--3----------------|--L----------------|--0----------------|


  W                   W                   W                   W                 
-------------------|-------------------|-------------------|-------------------|
-------------------|-------------------|-------------------|-------------------|
-------------------|-------------------|-------------------|--4----------------|
--L----------------|--5----------------|--4----------------|--x----------------|
-------------------|--x----------------|--x----------------|--2----------------|
--L----------------|--3----------------|--2----------------|-------------------|


  H        H           W                   H        H         
--------------------|-------------------|--------------------|
--------------------|-------------------|--------------------|
--6--------7--------|--4----------------|--6--------7--------|
--x--------x--------|--x----------------|--x--------x--------|
--4--------5--------|--2----------------|--4--------5--------|
--------------------|-------------------|--------------------|


  W                    H         H            W                 
-------------------|----------------------|--------------------|
-------------------|----------------------|--------------------|
--9----------------|--11--------12--------|--16----------------|
--x----------------|---x---------x--------|---x----------------|
--7----------------|---9--------10--------|--14----------------|
-------------------|----------------------|--------------------|


   W                   W                   W                 
--------------------|-------------------|-------------------|
--------------------|-------------------|-------------------|
--15----------------|--4----------------|--L----------------|
---x----------------|--x----------------|-------------------|
--13----------------|--2----------------|--L----------------|
--------------------|-------------------|-------------------|


  W                   W                   W                   W                 
-------------------|-------------------|-------------------|-------------------|
-------------------|-------------------|-------------------|-------------------|
-------------------|-------------------|-------------------|-------------------|
--5----------------|--L----------------|--2----------------|--L----------------|
--x----------------|-------------------|--x----------------|-------------------|
--3----------------|--L----------------|--0----------------|--L----------------|


  W                   W                   W                 
-------------------|-------------------|-------------------|
-------------------|-------------------|-------------------|
-------------------|-------------------|--4----------------|
--5----------------|--4----------------|--x----------------|
--x----------------|--x----------------|--2----------------|
--3----------------|--2----------------|-------------------|


  H        H           W                   H        H         
--------------------|-------------------|--------------------|
--------------------|-------------------|--------------------|
--6--------7--------|--4----------------|--6--------7--------|
--x--------x--------|--x----------------|--x--------x--------|
--4--------5--------|--2----------------|--4--------5--------|
--------------------|-------------------|--------------------|


  W                    H         H            W                 
-------------------|----------------------|--------------------|
-------------------|----------------------|--------------------|
--9----------------|--11--------12--------|--16----------------|
--x----------------|---x---------x--------|---x----------------|
--7----------------|---9--------10--------|--14----------------|
-------------------|----------------------|--------------------|


   W                   W                   W                 
--------------------|-------------------|-------------------|
--------------------|-------------------|-------------------|
--15----------------|--4----------------|--L----------------|
---x----------------|--x----------------|-------------------|
--13----------------|--2----------------|--L----------------|
--------------------|-------------------|-------------------|


  W                   W                   W                   W                 
-------------------|-------------------|-------------------|-------------------|
-------------------|-------------------|-------------------|-------------------|
-------------------|-------------------|-------------------|-------------------|
--5----------------|--L----------------|--2----------------|--L----------------|
--x----------------|-------------------|--x----------------|-------------------|
--3----------------|--L----------------|--0----------------|--L----------------|


  W                   W                   W                 
-------------------|-------------------|-------------------|
-------------------|-------------------|-------------------|
-------------------|-------------------|--4----------------|
--5----------------|--4----------------|--x----------------|
--x----------------|--x----------------|--2----------------|
--3----------------|--2----------------|-------------------|


  H        H           W                   H        H         
--------------------|-------------------|--------------------|
--------------------|-------------------|--------------------|
--6--------7--------|--4----------------|--6--------7--------|
--x--------x--------|--x----------------|--x--------x--------|
--4--------5--------|--2----------------|--4--------5--------|
--------------------|-------------------|--------------------|


  W                    H         H            W                 
-------------------|----------------------|--------------------|
-------------------|----------------------|--------------------|
--9----------------|--11--------12--------|--16----------------|
--x----------------|---x---------x--------|---x----------------|
--7----------------|---9--------10--------|--14----------------|
-------------------|----------------------|--------------------|


   W                   W                   H        H         
--------------------|-------------------|--------------------|
--------------------|-------------------|--------------------|
--15----------------|--4----------------|--6--------7--------|
---x----------------|--x----------------|--x--------x--------|
--13----------------|--2----------------|--4--------5--------|
--------------------|-------------------|--------------------|


  W                   H        H           W                 
-------------------|--------------------|-------------------|
-------------------|--------------------|-------------------|
--4----------------|--6--------7--------|--9----------------|
--x----------------|--x--------x--------|--x----------------|
--2----------------|--4--------5--------|--7----------------|
-------------------|--------------------|-------------------|


   H         H            W                    W                 
----------------------|--------------------|--------------------|
----------------------|--------------------|--------------------|
--11--------12--------|--16----------------|--15----------------|
---x---------x--------|---x----------------|---x----------------|
---9--------10--------|--14----------------|--13----------------|
----------------------|--------------------|--------------------|


-------------------||
-------------------||
-------------------||
-------------------||
-------------------||
-------------------||




Duration Legend
---------------
W - whole
H - half
Q - quarter
E - 8th
S - 16th
T - 32nd
X - 64th
. - note dotted
|-n-|  - n-tuplets


Tablature Legend
----------------
L - tied note
x - dead note
g - grace note
(n) - ghost note
> - accentuded note
NH - natural harmonic
AH - artificial harmonic
TH - tapped harmonic
SH - semi harmonic
PH - pitch harmonic
h - hammer on
p - pull off
b - bend
br - bendRelease
pb - preBend
pbr - preBendRelease
brb - bendReleaseBend
\n/ - tremolo bar dip
\n - tremolo bar dive
-/n - tremolo bar Release up
/n\ - tremolo bar inverted dip
/n - tremolo bar return
-\n - tremolo bar Release down
S - shift slide
s - legato slide
/ -  slide into from below or out of upwards
\ -  slide into from above or out of downwards
~ - vibrato
W - wide vibrato
tr - trill
TP - tremolo picking
T - tapping
S - slap
P - pop
< - fade in
^ - brush up
v - brush down

Добавлено: 21.06.2012
Другие материалы по этой песне:

Страница создана 29.05.2012
http://primanota.ru/dillinger-escape-plan/milk-lizard-chords.htm
Привет, Гость.
Предлагаем пройти революционный курс по гитаре.
Подарок от PrimaNota.Ru, забирай!