PrimaNota.ru - самый крупный в мире бесплатный архив песенных текстов, аккордов, табулатур и нот


Dillinger Escape Plan - Panasonic Youth - текст песни, таба, бас-таба, видео

Регистрация Запомнить меня
Войти через:  Facebook Google Twitter Vk Yandex Mail.ru

Dillinger Escape Plan - Panasonic Youth - текст песни, таба, бас-таба, видео

Печатать
Просмотров: 245
Авторы музыки: Greg Puciato, Ben Weinman

Panasonic Youth - The Dillinger Escape Plan
-----------------------------------------------------------------
Tabbed by: Nate Messina
Email: Kurt_Russe1@yahoo.com

Tuning:EADGBE

*These chords are VERY hard to hear, so I do not guarantee complete accuracy, but it's
good enough, I think.

Guitar 1  (0:01) "We wrote these plans..."
e|--------------------------------------|
B|--------------------------------------|
G|--------------------------------------|-----------|
D|-6-6--6-6--6-6---6--6--6-6------------|           |
A|-5-5--5-5--5-5---5--5--5-5---etc.-----|           |
E|-4-4--4-4--4-4---4--4--4-4------------|           |
                                                    |
Guitar 2                                            |
e|---------------------------------------------|    |
B|---------------------------------------------|    |
G|---------------------------------------------|----|
D|---------------------------------------------|
A|---------------------------------------------|
E|-9-9-9-9-9-9-9-9-9-9-9-9-9-9-9-9-9---etc.----|
   + + + + + + + + + + + + + + + + +

Guitar 1 (0:12)
e|-9--9--9--9--9--9--9--9--9--9--9--------|
B|13-13-13-13-13-13-13-13-13-13-13--------|   
G|12-12-12-12-12-12-12-12-12-12-12--------|---|
D|----------------------------------------|   |
A|----------------------------------------|   |
E|----------------------------------------|   |
                                              | 
Guitar 2 (0:12)                               |
e|---------------------------------------|    |
B|---------------------------------------|    |
G|---------------------------------------|----|
D|-6--------6--------6--------6----------|
A|-4--5--6--4--5--6--4--5--6--4--5--6----|
E|----3--4-----3--4-----3--4-----3--4----|

Guitar 1 (0:15) "We had none..."
e|--------------------------------------|
B|--------------------------------------|
G|--------------------------------------|-----------|
D|-6-6--6-6--6-6---6--6--6-6------------|           |
A|-5-5--5-5--5-5---5--5--5-5---etc.-----|           |
E|-4-4--4-4--4-4---4--4--4-4------------|           |
                                                    |
Guitar 2                                            |
e|---------------------------------------------|    |
B|---------------------------------------------|    |
G|---------------------------------------------|----|
D|---------------------------------------------|
A|---------------------------------------------|
E|-9-9-9-9-9-9-9-9-9-9-9-9-9-9-9-9-9-----------|
   + + + + + + + + + + + + + + + + +

Guitar 1 (0:20)
e|-9--9--9--9--9-15--9--9--9--9--9--------|
B|13-13-13-13-13-13-13-13-13-13-13--------|   
G|12-12-12-12-12-12-12-12-12-12-12--------|---|
D|----------------------------------------|   |
A|----------------------------------------|   |
E|----------------------------------------|   |
                                              | 
Guitar 2                                      |
e|---------------------------------------|    |
B|---------------------------------------|    |
G|---------------------------------------|----|
D|-6--------6--------6--------6----------|
A|-4--5--6--4--5--6--4--5--6--4--5--6----|
E|----3--4-----3--4-----3--4-----3--4----|

Guitar 1 *One of these guitars plays some open E palm mutes along with these chords.
Listen to it and you'll know what i'm talking about, if you don't already.*
e|-9--9--9--9--9-15--9--9--9--9--9--------|
B|13-13-13-13-13-13-13-13-13-13-13--------|   
G|12-12-12-12-12-12-12-12-12-12-12--------|---|
D|----------------------------------------|   |
A|----------------------------------------|   |
E|----------------------------------------|   |
                                              | 
Guitar 2                                      |
e|--------------------------------------|     |
B|--------------------------------------|     |
G|--------------------------------------|-----|
D|---------6--------6--------6----------|
A|---5--6--4--5--6--4--5--6--4--5--6----|
E|---3--4-----3--4-----3--4-----3--4----|

Chords are continued until about 0:46
e|-------------------------------|
B|-----------8---------8---------|
G|---5p0-5p0---5p0-5p0---5p0-----|
D|-------------------------------|
A|-------------------------------|
E|-------------------------------|

0:46 "We've come to an understanding"
e|-----------------0--------------|
B|--------------------------------|
G|--------------------------------|
D|-------------3-3---2h3p2-3-3----|
A|--------------------------------|
E|-1-1-1-1-0-0--------------------|

e|-------------------------------|
B|-------------------------------|
G|-------------------------------|
D|-------------------------------|----|
A|-3---3----3---3---------3-3-3--|    |
E|-1p0h1----1p0h1---------1-1-1--|    |
        You       Lose    I profit    |
e|---------------------------|        |
B|---------------------------|        |
G|-------5---------5---------|        |
D|-------4---------4---------|--------|
A|-------3---------3---------|
E|---------------------------|

0:53
e|-------------------------------|
B|-----------8---------8---------|
G|---5p0-5p0---5p0-5p0---5p0-----|
D|-------------------------------|----|
A|-------------------------------|    |
E|-------------------------------|    |
                                      |
e|-------------------------------|    |
B|-----------8-----------8-------|    |
G|---5p0-5p0---5p0-5p0-5---0-----|----| 
D|-------------------------------|
A|-------------------------------|
E|-------------------------------|

0:54 "High noon and there ain't no secrets"
e|-----------------0--------------|
B|--------------------------------|
G|--------------------------------|
D|-------------3-3---2-3-2-3-3----|
A|--------------------------------|
E|-1-1-1-1-0-0--------------------|

e|-------------------------------|
B|-------------------------------|
G|-------------------------------|
D|-------------------------------|----|
A|-3---3----3---3---------3-3-3--|    |
E|-1p0h1----1p0h1---------1-1-1--|    |
        No        More    Excuses     |
e|---------------------------|        |
B|---------------------------|        |
G|-------5---------5---------|        |
D|-------4---------4---------|--------|
A|-------3---------3---------|
E|---------------------------|

0:59
e|------------------------------------------------------------------|  
B|---------8---------8---------8-----------------8---------8--------|  
G|-5p0-5p0---5p0-5p0---5p0-5p0---5p0-5p0-6p0-5p0---5p0-5p0---5p0----|--|
D|------------------------------------------------------------------|  |
A|------------------------------------------------------------------|  |
E|------------------------------------------------------------------|  |
                                                                       |
e|------------------------------------------------------------------|  |
B|---------8---------8---------8-----------------8---------8--------|  |  
G|-5p0-5p0---5p0-5p0---5p0-5p0---5p0-5p0-6p0-5p0---5p0-5p0---5p0----|--|
D|------------------------------------------------------------------|
A|------------------------------------------------------------------|
E|------------------------------------------------------------------| 
PM--------- --------- --------- ----

1:04
e|------------|
B|-5-5--------|
G|-----5p0----|
D|------------|
A|------------|
E|------------|
P.M-

1:04
e|---------8---------8-------------------8-------------5-5----|
B|-5p0-5p0---5p0-5p0---5p0-5-0-6-0-5-0-5---0-5-0-6-0-0-----5p0|
G|-------------------------------------------------------- ---|--|
D|------------------------------------------------------------|  |
A|------------------------------------------------------------|  |
E|------------------------------------------------------------|  |
                           ^Pick every note            PM        |
e|---------8---------8-------------------8-------------5-5----|  |
B|-5p0-5p0---5p0-5p0---5p0-5-0-6-0-5-0-5---0-5-0-6-0-0-----5p0|  |
G|-------------------------------------------------------- ---|--|
D|------------------------------------------------------------|  
A|------------------------------------------------------------|  
E|------------------------------------------------------------| 

1:08
e|------------------------------------------------------------------|  
B|---------8---------8---------8-----------------8---------8--------|  
G|-5p0-5p0---5p0-5p0---5p0-5p0---5p0-5p0-6p0-5p0---5p0-5p0---5p0----|--|
D|------------------------------------------------------------------|  |
A|------------------------------------------------------------------|  |
E|------------------------------------------------------------------|  |
                                                                       |
e|------------------------------------------------------------------|  |
B|---------8---------8---------8-----------------8---------8--------|  |  
G|-5p0-5p0---5p0-5p0---5p0-5p0---5p0-5p0-6p0-5p0---5p0-5p0---5p0----|--|
D|------------------------------------------------------------------|
A|------------------------------------------------------------------|
E|------------------------------------------------------------------| 
PM--------- --------- --------- ----

1:13
e|------------|
B|-5-5--------|
G|-----5p0----|
D|------------|
A|------------|
E|------------|
P.M-

1:13
e|---------8---------8-------------------8-------------5-5----|
B|-5p0-5p0---5p0-5p0---5p0-5-0-6-0-5-0-5---0-5-0-6-0-0-----5p0|
G|-------------------------------------------------------- ---|--|
D|------------------------------------------------------------|  |
A|------------------------------------------------------------|  |
E|------------------------------------------------------------|  |
                           ^Pick every note            PM        |
e|---------8---------8-------------------8-------------5-5----|  |
B|-5p0-5p0---5p0-5p0---5p0-5-0-6-0-5-0-5---0-5-0-6-0-0-----5p0|  |
G|-------------------------------------------------------- ---|--|
D|------------------------------------------------------------|  
A|------------------------------------------------------------|  
E|------------------------------------------------------------| 

1:18 "Now our number's up."
e|---------------------------------------------------------------|
B|---------------------------------------------------------------|
G|---------------------------------------------------------------|--|
D|---------------------------------------------------------------|  |
A|-3---3--3---3---3---3---3---3-3-3------------------------------|  |
E|-1p0-1--1p0-1---1p0-1---1p0-1-1-1------------------------------|  |
                                                                    |
e|---------------------------------------------------------------|  |
B|---------------------------------------------------------------|  |
G|------5-------5-------5----------------------------------------|--|
D|------4-------4-------4----------------------------------------| 
A|------3-------3-------3----------------------------------------|
E|---------------------------------------------------------------|
1:21 "Let them lead us by the throat"
e|---------------------------------------------------------------|
B|---------------------------------------------------------------|
G|---------------------------------------------------------------|--|
D|---------------------------------------------------------------|  |
A|---3---3--3---3--3---3--3---3-3-3------------------------------|  |
E|---1p0-1--1p0-1--1p0-1--1p0-1-1-1------------------------------|  |
                                                                    |
e|---------------------------------------------------------------|  |
B|---------------------------------------------------------------|  |
G|--5-----5------5------5----------------------------------------|--|
D|--4-----4------4------4----------------------------------------|
A|--3-----3------3------3----------------------------------------|
E|---------------------------------------------------------------|

1:27 "Just smile while the rope pulls tighter
e|---------------------------------------------------------------|
B|---------------------------------------------------------------|
G|---------------------------------------------------------------|--|
D|---------------------------------------------------------------|  |
A|---3---3--3---3--3---3--3---3-3-3------------------------------|  |
E|---1p0-1--1p0-1--1p0-1--1p0-1-1-1------------------------------|  |
                                                                    |
e|---------------------------------------------------------------|  |
B|---------------------------------------------------------------|  |
G|--5-----5------5------5----------------------------------------|--|
D|--4-----4------4------4----------------------------------------|
A|--3-----3------3------3----------------------------------------|
E|---------------------------------------------------------------|

e|---------------------------------------------------------------|
B|---------------------------------------------------------------|
G|---------------------------------------------------------------|--|
D|---------------------------------------------------------------|  |
A|---3---3--3---3--3---3--3--------------------------------------|  |
E|---1p0-1--1p0-1--1p0-1--1p0------------------------------------|  |
                                                                    |
e|---------------------------------------------------------------|  |
B|---------------------------------------------------------------|  |
G|--5-----5------5------5----------------------------------------|--|
D|--4-----4------4------4----------------------------------------|
A|--3-----3------3------3----------------------------------------|
E|---------------------------------------------------------------|

1:37 "Guilty was an understatement."
e|-----------------0--------------|
B|--------------------------------|
G|--------------------------------|
D|-------------3-3---2-3-2-3-3----|
A|--------------------------------|
E|-1-1-1-1-0-0--------------------|

1:39
e|-16p15p13p12---------------------------------------------------|
B|-------------15-18p17p15p14------------------------------------|
G|---------------------------------------------------------------|--|
D|---------------------------------------------------------------|  |
A|---------------------------------------------------------------|  |
E|---------------------------------------------------------------|  |
                                                                    |
e|---------------------------------------------------------------|  |
B|---------------------------------------------------------------|  |
G|-----------------------------5---------------------------------|--|
D|-----------------------------4---------------------------------|
A|-----------------------------3---------------------------------|
E|---------------------------------------------------------------|

1:40 "The hourglass is never rightside-up..."
e|---------------------------------------------------------------|
B|---------------------------------------------------------------|
G|---------------------------------------------------------------|
D|---------------------------------------------------------------|
A|---------------------------------------------------------------|
E|--1-----------0---------------1--------------------------------|

1:44
e|---------------------------------------------------------------|
B|---------------------------------------------------------------|
G|--4-4-4-4--4---------------------------------------------------|
D|--3-3-3-3--3---------------------------------------------------|
A|--2-2-2-2--2---------------------------------------------------|
E|---------------------------------------------------------------|

1:46
e|---------------------------------------------------------------|
B|---------------------------------------------------------------|
G|---------------------------------------------------------------|
D|--3----2----3-------6--*feedback*------------------------------|
A|---------------------------------------------------------------|
E|---------------------------------------------------------------|

1:50 "Forgetting all the sour for the sweet"
e|---------------------------------------------------------------|
B|---------------------------------------------------------------|
G|---------------------------------------------------------------|
D|---------------------------------------------------------------|
A|-3-3-3-5-5-6-6-2-2-2-2-2-2-2-2-3-3-3-5-5-6-6-2-2---------------|
E|-1-1-1-3-3-4-4-0-0-0-0-0-0-0-0-1-1-1-3-3-4-4-0-0---------------|
PM-------------------------------------------------

1:53
e|---------------------------------------------------------------|
B|---------------------------------------------------------------|
G|-4-4-4-4-4-----------------------------------------------------|
D|-3-3-3-3-3-----------------------------------------------------|
A|-2-2-2-2-2-----------------------------------------------------|
E|---------------------------------------------------------------|

1:54 "The paragraph has never been so empty.
e|---------------------------------------------------------------|
B|---------------------------------------------------------------|
G|---------------------------------------------------------------|
D|---------------------------------------------------------------|
A|-3-3-3-5-5-6-6-2-2-2-2-2-2-2-2-3-3-3-5-5-6-6-2-2---------------|
E|-1-1-1-3-3-4-4-0-0-0-0-0-0-0-0-1-1-1-3-3-4-4-0-0---------------|
PM-------------------------------------------------

1:58
e|---------------------------------------------------------------|
B|---------------------------1---1-3-4-3-1-----------------------|
G|-4-------------~-----------1---1-3-4-3-1-----------------------|
D|-3-------3-1---3-------3-1---3------------3-----3-1------------|
A|-2-----------3--------------------------------------3----------|
E|-----1-1-----------1-1----------------------1-1----------------|
                P.H                                   ~   

*This is very approximate. I saw Dillinger live a few days ago and fortunately they
played this song. I saw Ben Weinman doing something like this. Brian Benoit was doing
something that was completely beyond me and looked insanely hard.

2:05
e|-----------------------15t7------------------------------------|
B|--15t10---------------------14t9-15t9--------------------------|
G|--------15t9--------------------------15t9---------------------|
D|-------------15t7--------------------------15t7----------------|
A|------------------15t7--------------------------15t7-----------|
E|---------------------------------------------------------------|

e|---------------------------------------------------------------|
B|---------------------------------------------------------------|
G|---------------------------------------------------------------|
D|---------------------------------------------------------------|
A|-3-3-3-5-5-6-6-2-2-2-2-2-2-2-2-3-3-3-5-5-6-6-2-2---------------|
E|-1-1-1-3-3-4-4-0-0-0-0-0-0-0-0-1-1-1-3-3-4-4-0-0---------------|

e|----------------|
B|----------------|
G|-5-5-5-5-5-5----|
D|-4-4-4-4-4-4----|
A|-3-3-3-3-3-3----|
E|----------------|

e|---------------------------------------------------------------|
B|---------------------------------------------------------------|
G|---------------------------------------------------------------|
D|---------------------------------------------------------------|
A|-3-3-3-5-5-6-6-2-2-2-2-2-2-2-2-3-3-3-5-5-6-6-2-2---------------|
E|-1-1-1-3-3-4-4-0-0-0-0-0-0-0-0-1-1-1-3-3-4-4-0-0---------------|

e|---------|
B|---------|
G|-4--4----|
D|-3--3----|
A|-2--2----|
E|---------|


e|---------------------------------------------------------------|
B|---------------------------------------------------------------|
G|---------------------------------------------------------------|
D|---------------------------------------------------------------|
A|-3-3-3-5-5-6-6-2-2-2-2-2-2-2-2-3-3-3-5-5-6-6-2-2---------------|
E|-1-1-1-3-3-4-4-0-0-0-0-0-0-0-0-1-1-1-3-3-4-4-0-0---------------|


e|---------------------------------------------------------------|
B|---------------------------------------------------------------|
G|---------------------------------------------------------------|
D|---------------------------------------------------------------|
A|-3-3-3-5-5-6-6-2-2-2-2-2-2-2-2-3-3-3-5-5-6-6-2-2---------------|
E|-1-1-1-3-3-4-4-0-0-0-0-0-0-0-0-1-1-1-3-3-4-4-0-0---------------|

e|---------------------------------------------------------------|
B|---------------------------------------------------------------|
G|---------------------------------------------------------------|
D|---------------------------------------------------------------|
A|-3-3-3-5-5-6-6-2-2-2-2-2-2-2-2-3-3-3-5-5-6-6-2-2---------------|
E|-1-1-1-3-3-4-4-0-0-0-0-0-0-0-0-1-1-1-3-3-4-4-0-0---------------|

e|---------------------------------------------------------------|
B|---------------------------------------------------------------|
G|---------------------------------------------------------------|
D|---------------------------------------------------------------|
A|-3-3-3-5-5-6-6-2-2-2-2-2-2-2-2-3-3-3-5-5-6-6-2-2---------------|
E|-1-1-1-3-3-4-4-0-0-0-0-0-0-0-0-1-1-1-3-3-4-4-0-0---------------|
| / slide up
| \ slide down
| h hammer-on
| p pull-off
| ~ vibrato
| + harmonic
| x Mute note
Добавлено: 08.06.2012
Другие материалы по этой песне:

Страница создана 23.04.2012
http://primanota.ru/dillinger-escape-plan/panasonic-youth-chords.htm
Привет, Гость.
Предлагаем пройти революционный курс по гитаре.
Подарок от PrimaNota.Ru, забирай!