PrimaNota.ru - самый крупный в мире бесплатный архив песенных текстов, аккордов, табулатур и нот


Dillinger Escape Plan - Babys First Coffin - текст песни, таба, видео

Регистрация Запомнить меня
Войти через:  Facebook Google Twitter Vk Yandex Mail.ru

Dillinger Escape Plan - Babys First Coffin - текст песни, таба, видео

Печатать
Просмотров: 170
Авторы музыки: Greg Puciato, Ben Weinman

BABY'S FIRST COFFIN
As recorded by The Dillinger Escape Plan
(From the 2004 Album MISS MACHINE)

Transcribed by Merrick Fox
        

Words by Greg Puciato Music by The Dillinger Escape Plan
Arranged by The Dillinger Escape Plan

Gtr I (E A D G B E) - 'Ben'
Gtr II (E A D G B E) - 'Brian'
Gtr III (E A D G B E) - 'Clean Brian'
Gtr IV (E A D G B E) - 'heavy mute Ben'
Gtr V (E A D G B E) - 'heavy mute Brian'
Gtr VI (E A D G B E) - 'clean Ben'

   Intro Section
    Q=173
      C       D#      F  F# F      D#      D# D#   F  F# F
   5/4
    Gtr I
    E  E  E E  E  E E  E  E  E   E  E  E E  E  E E  E  E  E
||-----------------------------|----------------------------|
||o---13-13---13-13---13-13-13-|---16-16---16-16---16-16-16-|
||-----------------------------|----------------------------|
||----10-10---10-10---10-10-10-|---13-13---13-13---13-13-13-|
||o----------------------------|----------------------------|
||-----------------------------|----------------------------|
|
|   Gtr II
|   E  E  E E  E  E E  E  E  E   E  E  E E  E  E E  E  E  E
||----13-13---11-11---13-14-13-|---13-13---11-11---13-14-13-|
||o----------------------------|----------------------------|
||----10-10----8--8---10-11-10-|---10-10----8--8---10-11-10-|
||-----------------------------|----------------------------|
||o----------------------------|----------------------------|
||-----------------------------|----------------------------|


    B       D# D#   F  F# F      D       D# D#   F  F# F
 5/4
  E  E  E E  E  E E  E  E  E   E  E  E E  E  E E  E  E  E
|----------------------------|----------------------------|
|---12-12---12-12---12-12-12-|---15-15---15-15---15-15-15-|
|----------------------------|----------------------------|
|----9--9----9--9----9--9--9-|---12-12---12-12---12-12-12-|
|----------------------------|----------------------------|
|----------------------------|----------------------------|
|
| E  E  E E  E  E E  E  E  E   E  E  E E  E  E E  E  E  E
|---13-13---11-11---13-14-13-|---13-13---11-11---13-14-13-|
|----------------------------|----------------------------|
|---10-10----8--8---10-11-10-|---10-10----8--8---10-11-10-|
|----------------------------|----------------------------|
|----------------------------|----------------------------|
|----------------------------|----------------------------|


 Jazzy section
  E5     C                      C   C
 4/4
  Gtr III
  Q.     H      +E    +H        E E E E
|-------------------|-------------------|
|-------------------|-------------------|
|-9------8------(8)-|-(8)-------8---8---|
|-9------7------(7)-|-(7)-------7---7---|
|-7------6------(6)-|-(6)-------6---6---|
|-------------------|-------------------|
|
| Gtr II
| E  E E E E Q   E     E  E E E E E E E
|-------------------|-------------------|
|-------------------|-------------------|
|------------8---6--|--7--------8---8---|
|------5------------|-----8-7-6-7---7---|
|----7-----9--------|-----------6---6---|
|-8------6----------|-------------------|


  E5     C                D#5   A5    C5    F#5
 5/4                     6/4
                          Gtr I
  Q.     H      +Q.       E E E E E E E E E E E E
|-----------------------|---------------------------||
|-----------------------|--------------------------o||
|-9------8------(8)-----|---------------------------||
|-9------7------(7)-----|-8-8-8-------5-5-5---------||
|-7------6------(6)-----|-6-6-6-7-7-7-3-3-3-4-4-4--o||
|-----------------------|-------5-5-5-------2-2-2---||
|
| E  E E E E Q   E  E E   E E E E E E E E E E E E
|-----------------------|---------------------------||
|-----------------------|--------------------------o||
|------------8---6--7---|---------------------------||
|------5--------------8-|-8-8-8-------5-5-5---------||
|----7-----9------------|-6-6-6-7-7-7-3-3-3-4-4-4--o||
|-8------6--------------|-------5-5-5-------2-2-2---||


 Intro Riff
    C       C       C            D#      D#      D#
 5/4
  E  E  E E  E  E E  E  E  E   E  E  E E  E  E E  E  E  E
|----------------------------|----------------------------|
|---13-13---13-13---13-13-13-|---16-16---16-16---16-16-16-|
|----------------------------|----------------------------|
|---10-10---10-10---10-10-10-|---13-13---13-13---13-13-13-|
|----------------------------|----------------------------|
|----------------------------|----------------------------|
|
| E  E  E E  E  E E  E  E  E   E  E  E E  E  E E  E  E  E
|---13-13---11-11---13-14-13-|---13-13---11-11---13-14-13-|
|----------------------------|----------------------------|
|---10-10----8--8---10-11-10-|---10-10----8--8---10-11-10-|
|----------------------------|----------------------------|
|----------------------------|----------------------------|
|----------------------------|----------------------------|


    B       B       B            D       D       D
 5/4
  E  E  E E  E  E E  E  E  E   E  E  E E  E  E E  E  E  E
|----------------------------|----------------------------|
|---12-12---12-12---12-12-12-|---15-15---15-15---15-15-15-|
|----------------------------|----------------------------|
|----9--9----9--9----9--9--9-|---12-12---12-12---12-12-12-|
|----------------------------|----------------------------|
|----------------------------|----------------------------|
|
| E  E  E E  E  E E  E  E  E   E  E  E E  E  E E  E  E  E
|---13-13---11-11---13-14-13-|---13-13---11-11---13-14-13-|
|----------------------------|----------------------------|
|---10-10----8--8---10-11-10-|---10-10----8--8---10-11-10-|
|----------------------------|----------------------------|
|----------------------------|----------------------------|
|----------------------------|----------------------------|


   Bridge
    F             D#    F  F# F    F             D#    F  F# F
   5/4
     Q     +Q     E E E  E  E  E    Q     +Q     E E E  E  E  E
||--19----(19)\------------------|-19----(19)\-------------------||
||o-18----(18)\------------------|-18----(18)\------------------o||
||----------------8-8---10-11-10-|---------------8-8---10-11-10--||
||-------------------------------|-------------------------------||
||o---------------6-6----8--9--8-|---------------6-6----8--9--8-o||
||-------------------------------|-------------------------------||
|
|    E  E   E   E E E E  E  E  E    E  E   E   E E E E  E  E  E
||-------------------------------|-------------------------------||
||o------------------------------|------------------------------o||
||--10-10--10-----8-8---10-11-10-|-10-10--10-----8-8---10-11-10--||
||-------------------------------|-------------------------------||
||o--8--8---8-----6-6----8--9--8-|--8--8---8-----6-6----8--9--8-o||
||-------------------------------|-------------------------------||


 Pre-Verse
  D#    A5    C     F#5     F#5 F5                F5E5F5G#5
 6/4                                             3/4
  Gtrs I, II
                            PM------|
  E E E E E E E E E E E E   E E E E E E H.        E E E Q.
|-------------------------|---------------------|------------|
|-------------------------|---------------------|------------|
|-8-8-8-------5-5-5-------|---------------------|------------|
|-------------------------|---------------------|------------|
|-6-6-6-7-7-7-3-3-3-4-4-4-|-4-4-3-3-3-----------|-3-2-3-6----|
|-------5-5-5-------2-2-2-|-2-2-1-1-1-----------|-1-0-1-4----|


  D#    A5    C     F#5     F#5 F5                F5E5F5G#5
 6/4                                             3/4
  Gtrs I, II
                            PM------|
  E E E E E E E E E E E E   E E E E E E H.        E E E Q.
|-------------------------|---------------------|------------|
|-------------------------|---------------------|------------|
|-8-8-8-------5-5-5-------|---------------------|------------|
|-------------------------|---------------------|------------|
|-6-6-6-7-7-7-3-3-3-4-4-4-|-4-4-3-3-3-----------|-3-2-3-6----|
|-------5-5-5-------2-2-2-|-2-2-1-1-1-----------|-1-0-1-4----|


  D#D#  A5    C       E                                   F5E5F5G#5
 9/8                 15/8                                3/4
  E E E E E E E E E   S S  E E S S E  E E E E Q  E E Q    E E E Q.
|-------------------|-----12---------12-----------------|-------------|
|-------------------|-----16---------16-----------------|-------------|
|-8-8-8-------5-5-5-|-----------------------------------|-------------|
|-------------------|-----------------------------------|-------------|
|-6-6-6-7-7-7-3-3-3-|-----------------------------------|-3-2-3-6-----|
|-------5-5-5-------|-0-0----0-0-0-0----0-0-0----0-0----|-1-0-1-4-----|
|
| Gtr II
| E E E E E E E E E   S S  E E S S E  E E E E Q  E E Q    E E E Q.
|-------------------|-----14---------14-----------------|-------------|
|-------------------|-----18---------18-----------------|-------------|
|-8-8-8-------5-5-5-|-----------------------------------|-------------|
|-------------------|-----------------------------------|-------------|
|-6-6-6-7-7-7-3-3-3-|-----------------------------------|-3-2-3-6-----|
|-------5-5-5-------|-0-0----0-0-0-0----0-0-0----0-0----|-1-0-1-4-----|


  D#    A5    C             F#5 F5         E5       F5E5F5G#5
 6/4                                               3/4
  Gtrs I, II
                            PM------|
  E E E E E E E E E E E E   E E E E E Q.   E E Q    E E E Q.
|-------------------------|-----------------------|------------|
|-------------------------|-----------------------|------------|
|-8-8-8-------5-5-5-------|-----------------------|------------|
|-------------------------|-----------------------|------------|
|-6-6-6-7-7-7-3-3-3-4-4-4-|-4-4-3-3-3------2-2----|-3-2-3-6----|
|-------5-5-5-------2-2-2-|-2-2-1-1-1------0-0----|-1-0-1-4----|


 Interlude
  A                   A                    A
 7/8                 8/8                  9/8
  Gtr IV
   PM--------------------------------------------------------|
   E E  E E E  E  E    E E  E E E  E  Q     E E  E E E  E  E Q
|-------------------|--------------------|----------------------
|-------------------|--------------------|----------------------
|-------------------|--------------------|----------------------
|-10-7------7-10----|-10-7------7-10-----|-10-7------7-10-------
|---------0-------8-|---------0-------8--|---------0-------8-0--
|-------8-----------|-------8------------|-------8--------------
|
| Gtr V
|  PM--------------------------------------------------------|
|  E E  E E E  E  E    E E  E E E  E  Q     E E  E E E  E  E Q
|-------------------|--------------------|----------------------
|-------------------|--------------------|----------------------
|----------------10-|----------------10--|----------------10----
|----7-10-7---------|----7-10-7----------|----7-10-7------------
|--0--------6-------|--0--------6--------|--0--------6-------0--
|--------------6----|--------------6-----|--------------6-------


  A                 A                   A
 6/8               7/8                 8/8
   PM------------------------------------------------------------
   E  E  E E E  E    E E  E E E  E  E    E E  E E E  E   Q
|-----------------|-------------------|-------------------------|
|-----------------|-------------------|-------------------------|
|------------9----|-------------------|-------------------------|
|-10--7----7------|-10-7------7-10----|-10-7------7-10----------|
|--------0------8-|---------0-------8-|---------0--------8------|
|-----------------|-------8-----------|-------8-----------------|
|
|  PM------------------------------------------------------------
|  E  E  E E E  E    E E  E E E  E  E    E E  E E E  E   Q
|-----------------|-------------------|-------------------------|
|-----------------|-------------------|-------------------------|
|--------------10-|----------------10-|----------------[10]b12--|
|----10-11--------|----7-10-7---------|----7-10-7---------------|
|--0-------6------|--0--------6-------|--0--------6-------------|
|------------6----|--------------6----|--------------6----------|


  A                      A
 9/8                    6/8
 --------------------------------------|
   E E  E E E  E  E Q     E  E  E E  E  E
|----------------------|------------------|
|----------------------|------------------|
|----------------------|------------------|
|-10-7------7-10-------|-10--7----7-10----|
|---------0-------8-0--|--------0-------8-|
|-------8--------------|------------------|
|
|--------------------------------------|
|  E E  E E E  E  E Q     E  E  E E  E  E
|----------------------|------------------|
|----------------------|------------------|
|----------------10----|---------------10-|
|----7-10-7------------|----10-11----9----|
|--0--------6-------0--|--0-------6-------|
|--------------6-------|------------------|


 Bridge
  D5                G#5
 4/4
  Gtr I
  E E E E E E E E   E E E E E E Q
|-----------------|------------------|
|-----------------|------------------|
|-----------------|------------------|
|-7-7-7-7-7-7-7-7-|------------------|
|-5-5-5-5-5-5-5-5-|-6-6-6-6-6-6-x----|
|-----------------|-4-4-4-4-4-4-x\---|
|
| Gtr II
|                   PM-------------|
| E E E E E E E E   E E E E E E E  E
|-----------------|------------------|
|-----------------|------------------|
|-----------------|------------------|
|-7-7-7-7-7-7-7-7-|------------------|
|-5-5-5-5-5-5-5-5-|-6-6-6-6-6-6-6--6-|
|-----------------|-4-4-4-4-4-4-4--4-|


 Interlude
  A                      A
 8/8
  Gtr IV
   PM----------------------------------------
   E E  E E E  E  E  E   E  E E E  E  Q   E
|----------------------|--------------------|
|----------------------|--------------------|
|----------------------|--------------------|
|-10-7------7-10----10-|-7------7-10-----10-|
|---------0-------8----|------0-------8-----|
|-------8--------------|----8---------------|
|
| Gtr V
|  PM|    PM--|      PM--|    PM--|       PM-
|  E E  E E E  E  E  E   E  E E E  E  Q   E
|----------------------|--------------------|
|----------------------|--------------------|
|----------------10----|-------------10-----|
|----7-10-7------------|-7-10-7-------------|
|--0--------6--------0-|--------6---------0-|
|--------------6-------|-----------6--------|


  A                   A
                     6/8
 -----------------------------------|
  E  E E E  E  E Q     E  E  E E  E  E
|-------------------|-------------------|
|-------------------|-------------------|
|-------------------|-------------------|
|-7------7-10-------|-10--7----7-10-----|
|------0-------8-0--|--------0-------8--|
|----8--------------|-------------------|
|
|-|    PM--|     PM---|      PM--|
| E  E E E  E  E Q     E  E  E E  E  E
|-------------------|-------------------|
|-------------------|-------------------|
|-------------10----|---------------10--|
|-7-10-7------------|----10-11----------|
|--------6-------0--|--0-------6--------|
|-----------6-------|-------------6-----|


  A                      A
 8/8
   PM---------------------------------------------
   E E  E E E  E  E  E   E  E E E  E   Q       E
|----------------------|-------------------------|
|----------------------|-------------------------|
|----------------------|-------------------------|
|-10-7------7-10----10-|-7------7-10----------10-|
|---------0-------8----|------0--------8---------|
|-------8--------------|----8--------------------|
|
|  PM|    PM--|      PM--|    PM--|            PM-
|  E E  E E E  E  E  E   E  E E E  E   Q       E
|----------------------|-------------------------|
|----------------------|-------------------------|
|----------------10----|-------------[10]b12-----|
|----7-10-7------------|-7-10-7------------------|
|--0--------6--------0-|--------6--------------0-|
|--------------6-------|-----------6-------------|


  A                   A
                     6/8
 -----------------------------------|
  E  E E E  E  E Q     E  E  E E  E  E
|-------------------|-------------------|
|-------------------|-------------------|
|-------------------|-------------------|
|-7------7-10-------|-10--7----7-10-----|
|------0-------8-0--|--------0-------8--|
|----8--------------|-------------------|
|
|-|    PM--|     PM-----------------|
| E  E E E  E  E Q     E  E  E E  E  E
|-------------------|-------------------|
|-------------------|-------------------|
|-------------10----|---------------10--|
|-7-10-7------------|----10-11----9-----|
|--------6-------0--|--0-------6--------|
|-----------6-------|-------------------|


 Bridge
  D5                G#5                 A5  C5  G#5     A5  C5  G#5
 4/4                                   7/8             8/8
  Gtrs I, II
                    PM------------|
  E E E E E E E E   E E E E E E E E     E E E E E E E   E E E E E E Q
|-----------------|-----------------||----------------|-----------------|
|-----------------|-----------------||o---------------|-----------------|
|-----------------|-----------------||----------------|-----------------|
|-7-7-7-7-7-7-7-7-|-----------------||------5-5-------|-----5-5---------|
|-5-5-5-5-5-5-5-5-|-6-6-6-6-6-6-6-6-||o-7-7-3-3-6-6-6-|-7-7-3-3-6-6-6---|
|-----------------|-4-4-4-4-4-4-4-4-||--5-5-----4-4-4-|-5-5-----4-4-4---|


  A5  C5  G#5     A5    C5  G#5
 7/8             8/8
  E E E E E E E   E E E E E E E E
|---------------|------------------||
|---------------|-----------------o||
|---------------|------------------||
|-----5-5-------|-------5-5--------||
|-7-7-3-3-6-6-6-|-7---7-3-3-6-6-6-o||
|-5-5-----4-4-4-|-5---5-----4-4-4--||


  D5                G#5
 4/4
  Gtr I
  E E E E E E E E   E E E E E E E E
|-----------------|-----------------|
|-----------------|-----------------|
|-----------------|-8-8-8-8-8-8-8-8-|
|-7-7-7-7-7-7-7-7-|-6-6-6-6-6-6-6-6-|
|-5-5-5-5-5-5-5-5-|-----------------|
|-----------------|-----------------|
|
| Gtr II
| E E E E E E E E   E E E E E E E E
|-----------------|-----------------|
|-----------------|-----------------|
|-----------------|-----------------|
|-7-7-7-7-7-7-7-7-|-----------------|
|-5-5-5-5-5-5-5-5-|-6-6-6-6-6-6-6-6-|
|-----------------|-4-4-4-4-4-4-4-4-|


 Interlude
  A                      A
 4/4
  Gtr VI
   PM----------------------------------------
   E E  E E E  E  E  E   E  E E E  E  Q   E
|----------------------|--------------------|
|----------------------|--------------------|
|----------------------|--------------------|
|-10-7------7-10----10-|-7------7-10-----10-|
|---------0-------8----|------0-------8-----|
|-------8--------------|----8---------------|
|
| Gtr III
|  PM|    PM--|      PM--|    PM--|       PM-
|  E E  E E E  E  E  E   E  E E E  E  Q   E
|----------------------|--------------------|
|----------------------|--------------------|
|----------------10----|-------------10-----|
|----7-10-7------------|-7-10-7-------------|
|--0--------6--------0-|--------6---------0-|
|--------------6-------|-----------6--------|


  A                   A
                     6/8
 -----------------------------------|
  E  E E E  E  E Q     E  E  E E  E  E
|-------------------|-------------------|
|-------------------|-------------------|
|-------------------|-------------------|
|-7------7-10-------|-10--7----7-10-----|
|------0-------8-0--|--------0-------8--|
|----8--------------|-------------------|
|
|-|    PM--|     PM---|      PM--|
| E  E E E  E  E Q     E  E  E E  E  E
|-------------------|-------------------|
|-------------------|-------------------|
|-------------10----|---------------10--|
|-7-10-7------------|----10-11----------|
|--------6-------0--|--0-------6--------|
|-----------6-------|-------------6-----|


  A                      A
 4/4
  Gtr I
   E E  E E E  E  E  E   E  E E E  E  Q   E
|----------------------|--------------------|
|----------------------|--------------------|
|----------------------|--------------------|
|-10-7------7-10----10-|-7------7-10-----10-|
|---------0-------8----|------0-------8-----|
|-------8--------------|----8---------------|
|
| Gtr II
|  E E  E E E  E  E  E   E  E E E  E  Q   E
|----------------------|--------------------|
|----------------------|--------------------|
|----------------10----|-------------10-----|
|----7-10-7------------|-7-10-7-------------|
|--0--------6--------0-|--------6---------0-|
|--------------6-------|-----------6--------|


  A                   A
                     6/8
  E  E E E  E  E Q     E  E  E E  E  E
|-------------------|-------------------|
|-------------------|-------------------|
|-------------------|-------------------|
|-7------7-10-------|-10--7----7-10-----|
|------0-------8-0--|--------0-------8--|
|----8--------------|-------------------|
|
| E  E E E  E  E Q     E  E  E E  E  E
|-------------------|-------------------|
|-------------------|-------------------|
|-------------10----|---------------10--|
|-7-10-7------------|----10-11----9-----|
|--------6-------0--|--0-------6--------|
|-----------6-------|-------------------|


 Bridge
  D5                G#5                 A5  C5  G#5     A5  C5  G#5
 4/4                                   7/8             8/8
  Gtrs I, II
                    PM------------|
  E E E E E E E E   E E E E E E E E     E E E E E E E   E E E E E E Q
|-----------------|-----------------||----------------|-----------------|
|-----------------|-----------------||o---------------|-----------------|
|-----------------|-----------------||----------------|-----------------|
|-7-7-7-7-7-7-7-7-|-----------------||------5-5-------|-----5-5---------|
|-5-5-5-5-5-5-5-5-|-6-6-6-6-6-6-6-6-||o-7-7-3-3-6-6-6-|-7-7-3-3-6-6-6---|
|-----------------|-4-4-4-4-4-4-4-4-||--5-5-----4-4-4-|-5-5-----4-4-4---|


  A5  C5  G#5     A5    C5  G#5
 7/8             8/8
  E E E E E E E   E E E E E E E E
|---------------|------------------||
|---------------|-----------------o||
|---------------|------------------||
|-----5-5-------|-------5-5--------||
|-7-7-3-3-6-6-6-|-7---7-3-3-6-6-6-o||
|-5-5-----4-4-4-|-5---5-----4-4-4--||


  D5                G#5
 4/4
  Gtr I
  E E E E E E E E   E E E E E E E E
|-----------------|-----------------|
|-----------------|-----------------|
|-----------------|-8-8-8-8-8-8-8-8-|
|-7-7-7-7-7-7-7-7-|-6-6-6-6-6-6-6-6-|
|-5-5-5-5-5-5-5-5-|-----------------|
|-----------------|-----------------|
|
| Gtr II
| E E E E E E E E   E E E E E E E E
|-----------------|-----------------|
|-----------------|-----------------|
|-----------------|-----------------|
|-7-7-7-7-7-7-7-7-|-----------------|
|-5-5-5-5-5-5-5-5-|-6-6-6-6-6-6-6-6-|
|-----------------|-4-4-4-4-4-4-4-4-|


 Chromatic riff
 11/8
  E E E E E E E E E E E   E E E E E Q  E E E E
|-----------------------|----------------------|
|-----------------------|----------------------|
|-----------------------|----------------------|
|-----------------------|----------------------|
|-----------------------|----------------------|
|-4-5-4-3-4-3-2-4-5-4-3-|-4-3-2-2-3-2--4-4---4-|
|
| E E E E E E E E E E E   E E E E E Q  E E E E
|-----------------------|----------------------|
|-----------------------|----------------------|
|-----------------------|----------------------|
|-----------------------|----------------------|
|-4-5-4-3-4-3-2-4-5-4-3-|-4-3-2-2-3-2--4-4---4-|
|-4-5-4-3-4-3-2-4-5-4-3-|-4-3-2-2-3-2--4-4---4-|


 7/4                           2/4       15/8
  E E E E E E E E E E E E E E   E E E E   E E E E E E E E E E E E E Q
|-----------------------------|---------|------------------------------|
|-----------------------------|---------|------------------------------|
|-----------------------------|---------|------------------------------|
|-----------------------------|---------|------------------------------|
|-----------------------------|---------|------------------------------|
|-4-5-4-3-4-3-2-4-5-4-3-4-4---|-4-4-5---|-4-4-3-2-4-5-4-3-4-3-2-2-3-4--|
|
| E E E E E E E E E E E E E E   E E E E   E E E E E E E E E E E E E Q
|-----------------------------|---------|------------------------------|
|-----------------------------|---------|------------------------------|
|-----------------------------|---------|------------------------------|
|-----------------------------|---------|------------------------------|
|-4-5-4-3-4-3-2-4-5-4-3-4-4---|-4-4-5---|-4-4-3-2-4-5-4-3-4-3-2-2-3-4--|
|-4-5-4-3-4-3-2-4-5-4-3-4-4---|-4-4-5---|-4-4-3-2-4-5-4-3-4-3-2-2-3-4--|


                              F#5
 13/8
  E E E E E E E E E E E E E   E E E E E E E E E E E E E
|---------------------------|---------------------------|
|---------------------------|---------------------------|
|---------------------------|---------------------------|
|---------------------------|---------------------------|
|---------------------------|-4-4---4-4---4-4---4-4---4-|
|-4-5-4-3-4-3-2-4-5-4-3-4-3-|-2-2---2-2---2-2---2-2---2-|
|
| E E E E E E E E E E E E E   E E E E E E E E E E E E E
|---------------------------|---------------------------|
|---------------------------|---------------------------|
|---------------------------|---------------------------|
|---------------------------|---------------------------|
|-4-5-4-3-4-3-2-4-5-4-3-4-3-|-4-4---4-4---4-4---4-4---4-|
|-4-5-4-3-4-3-2-4-5-4-3-4-3-|-2-2---2-2---2-2---2-2---2-|


  F#5                                   F#5
 13/8                                  9/8
  E S T E E S T E E S T E E S T E E E   E E E E E E E E E
|-------------------------------------|-------------------|
|-------------------------------------|-------------------|
|-------------------------------------|-------------------|
|-------------------------------------|-------------------|
|-4-4-4-4-4-4-4-4-4-4-4-4-4-4-4-4-4---|-4-4---4-4---4-4---|
|-2-2-2-2-2-2-2-2-2-2-2-2-2-2-2-2-2---|-2-2---2-2---2-2---|
|
| E S T E E S T E E S T E E S T E E E   E E E E E E E E E
|-------------------------------------|-------------------|
|-------------------------------------|-------------------|
|-------------------------------------|-------------------|
|-------------------------------------|-------------------|
|-4-4-4-4-4-4-4-4-4-4-4-4-4-4-4-4-4---|-4-4---4-4---4-4---|
|-2-2-2-2-2-2-2-2-2-2-2-2-2-2-2-2-2---|-2-2---2-2---2-2---|


 Bridge
  B                                    F#5       C
 12/8                                 3/8       13/8
  Gtr I
   E   Q    E   Q    E   Q    Q.       E E E 12x E Q  E E. E. E. E. E. E.
|-<7>-<7>--------------------------||---------||--------------------------|
|----------<7>-<7>-----------------||o-------o||--------------------------|
|-------------------<5>-<5>--------||---------||--------------------------|
|-----------------------------x----||--4-4----||-4-4----4-----4-----4-----|
|-----------------------------x----||o-3-3---o||-3-3----3-----3-----3-----|
|-----------------------------x\---||--2-2----||-2-2----2-----2-----2-----|
|
| Gtr II
|  W                        H          E E E 12x E Q  E E. E. E. E. E. E.
|----------------------------------||---------||--------------------------|
|----------------------------------||o-------o||--------------------------|
|----------------------------------||---------||--------------------------|
|----------------------------------||---------||-4-4----4-----4-----4-----|
|----------------------------------||o-4-4---o||-3-3----3-----3-----3-----|
|----------------------------------||--2-2----||-2-2----2-----2-----2-----|


 Breakdown
  Em                        C
 9/8                  8/8
  Gtr VI
   Q  E Q  Q  Q          E  Q  E Q  Q
|--------------------|-----------------|
|--------------------|-----------------|
|--0----0-----0------|------0----0-----|
|--4----4-----4------|------4----4-----|
|--------------------|-----------------|
|-----0----0---------|---0-----0----0--|
|
| Gtr II
|  >
|  W             +E     +W
|--------------------|-----------------|
|-!0------------!(0)-|-!(0)------------|
|-!0------------!(0)-|-!(0)------------|
|-!2------------!(2)-|-!(2)------------|
|-!2------------!(2)-|-!(2)------------|
|-!0------------!(0)-|-!(0)------------|


  C                 G
 9/8               8/8            6/8
  E Q  E Q  E Q     Q  E Q  Q  E   Q  Q  Q
|-----------------|--------------|------------|
|-----------------|--------------|------------|
|-0------0----0---|----0----0----|-0-----0----|
|-4------4----4---|----4----4----|-4-----4----|
|-----------------|--------------|------------|
|---0--3----3-----|-3----3-----3-|----3-------|
|
| W             E   W              H     Q
|-----------------|--------------|------------|
|-----------------|--------------|------------|
|-----------------|--------------|------------|
|-----------------|--------------|------------|
|-----------------|--------------|------------|
|-----------------|--------------|------------|


 9/8             8/8            5/8
  Q  Q  E Q  Q    E Q  Q  E Q    Q  E  Q
|---------------|--------------|-----------|
|---------------|--------------|-----------|
|----0----0-----|-0----0----0--|----0-(0)--|
|----2----2-----|-2----3----3--|----3-/4---|
|---------------|--------------|-----------|
|-1-----1----1--|---1-----1----|-1---------|


  C              E               G                G              G
 8/8            9/8                              8/8            6/8
  Q  E Q  Q  E   Q  Q  E Q  Q    E Q  E Q  E Q    Q  E Q  Q  E   Q  Q  Q
|--------------|---------------|----------------|--------------|----------|
|--------------|---------------|----------------|--------------|----------|
|-0----0-----0-|----0----0-----|-0------0----0--|----0----0----|-0-----0--|
|-4----4-----4-|----5----5-----|-5------4----4--|----4----5----|-5-----5--|
|--------------|---------------|----------------|--------------|----------|
|----0----0----|-0-----0----0--|---0--3----3----|-3----3-----3-|----3-----|


  F               Em             F
 9/8             8/8            3/8
  Q  Q  E Q  Q    Q  E Q  E Q    E E  E
|---------------|--------------|---------|
|---------------|--------------|---------|
|----0----0-----|-0----0----0--|---0-(0)-|
|----2----2-----|-2----3----3--|---3-/4--|
|---------------|--------------|---------|
|-1-----1----1--|----1----1----|-1-------|


  C                    E                     C                    G
 12/8                                                            4/8
  Q  E Q  Q  E Q  Q    E Q  Q  E Q  E Q  E   Q  Q  E Q  Q  E Q    Q  Q
|--------------------|---------------------|--------------------|--------|
|--------------------|---------------------|--------------------|--------|
|-0----0-----0----0--|---0-----0------0----|-0-----0----0----0--|----0---|
|-4----4-----4----4--|---4-----4------4----|-4-----4----4----4--|----4---|
|--------------------|---------------------|--------------------|--------|
|----0----0----0-----|-0----0----0--3----3-|----3----3-----3----|-3------|


  Em                   F                        E                    G
 12/8                 13/8                     12/8                 3/8
  Q  E Q  Q  E Q  Q    E Q  Q  E  Q   Q  E Q    Q  E Q  Q  E Q  Q    E Q
|--------------------|------------------------|--------------------|-------|
|--------------------|------------------------|--------------------|-------|
|-0----0-----0----0--|---0-----0-(0)--0----0--|----0----0----0-----|-0-----|
|-2----2-----2----3--|---3-----3-/4---4----4--|----4----5----5-----|-5-----|
|--------------------|------------------------|--------------------|-------|
|----1----1----1-----|-1----1------------0----|-0----0-----0----0--|---0---|


  G                      G                     F
 13/8                   12/8                  13/8
  E Q  E Q  Q  E Q  Q    E Q.   Q.   Q  E Q    Q  E Q  Q  E Q  Q  E
|----------------------|---------------------|----------------------|
|----------------------|---------------------|----------------------|
|---2----2-----2----0--|---0---------0----0--|----0----0----0-----0-|
|---4----4-----4----0--|---0----0----2----2--|----2----0----0-----4-|
|----------------------|---------------------|----------------------|
|-3----3----3----3-----|-3--------------1----|-1----1-----1----1----|


  C                    E                     C                    G
 12/8                                                            4/8
  Q  E Q  Q  E Q  Q    E Q  Q  E Q  E Q  E   Q  Q  E Q  Q  E Q    Q  Q
|--------------------|---------------------|--------------------|--------|
|--------------------|---------------------|--------------------|--------|
|-0----0-----0----0--|---0-----0------0----|-0-----0----0----0--|----0---|
|-4----4-----4----4--|---4-----4------4----|-4-----4----4----4--|----4---|
|--------------------|---------------------|--------------------|--------|
|----0----0----0-----|-0----0----0--3----3-|----3----3-----3----|-3------|


  F                    Fsus2                  E                    G
 12/8                 13/8                   12/8                 3/8
  Q  Q  E Q  Q  E Q    Q  E Q  Q  E Q  E Q    Q  E Q  Q  E Q  Q    E Q
|--------------------|----------------------|--------------------|-------|
|--------------------|----------------------|--------------------|-------|
|----0----0-----0----|-0----0-----0-0----0--|----0----0----0-----|-0-----|
|----2----2-----2----|-3----3-----4-4----4--|----4----5----5-----|-5-----|
|--------------------|----------------------|--------------------|-------|
|-1-----1----1----1--|----1----1-------0----|-0----0-----0----0--|---0---|


 13/8                   12/8                 13/8
  E Q  E Q  Q  Q  E Q    E Q  Q  Q  Q  Q  E   Q  Q  E Q  Q  E Q  E
|----------------------|--------------------|----------------------|
|----------------------|--------------------|----------------------|
|---0----0-----0----0--|---0-----0-----0----|-0-----0----0----0--0-|
|---4----4-----4----5--|---5-----5-----2----|-2-----2----3----3--3-|
|----------------------|--------------------|----------------------|
|-3----3----3-----3----|-3----3-----3-----1-|----1----1-----1------|


 Outro
  E5                E5                E5                E5
 8/8                                                   5/8
  Gtrs I, II
  E E E E E E E E   E E E E E E E E   E E E E E E E E   E E E E E
|-----------------|-----------------|-----------------|-----------|
|-----------------|-----------------|-----------------|-----------|
|-----------------|-----------------|-----------------|-----------|
|-----------------|-----------------|-----------------|-----------|
|-2-2---2-2---2---|-2-2---2---2-2---|-2---2-2---2-2---|-2-2---2---|
|-0-0---0-0---0---|-0-0---0---0-0---|-0---0-0---0-0---|-0-0---0---|


    E5                E5                E5                E5
   8/8                                                   7/8
      PM--|                 PM
    E E E E E E E E   E E E E E E E E   E E E E E E E E   E E E E E E E
||------------------|-----------------|-----------------|----------------|
||o-----------------|-----------------|-----------------|----------------|
||------------------|-----------------|-----------------|----------------|
||------------------|-----------------|-----------------|----------------|
||o-2-2-2-2---2-2---|-2---2-2-2---2---|-2-2---2---2-2---|-2---2-2---2----|
||--0-0-0-0---0-0---|-0---0-0-0---0---|-0-0---0---0-0---|-0---0-0---0----|


  E5                E5                E5                E5
 8/8                                                   5/8
  E E E E E E E E   E E E E E E E E   E E E E E E E E   E E E E E
|-----------------|-----------------|-----------------|------------||
|-----------------|-----------------|-----------------|-----------o||
|-----------------|-----------------|-----------------|------------||
|-----------------|-----------------|-----------------|------------||
|-2-2---2-2---2---|-2-2---2---2-2---|-2---2-2---2-2---|-2-2---2---o||
|-0-0---0-0---0---|-0-0---0---0-0---|-0---0-0---0-0---|-0-0---0----||


  E5                E5                E5                E5
 8/8                                                   11/8
                            PM--|
  E E E E E E E E   E E E E E E E E   E E E E E E E E   E E E E E E E E E E E
|-----------------|-----------------|-----------------|-----------------------*|
|-----------------|-----------------|-----------------|-----------------------*|
|-----------------|-----------------|-----------------|-----------------------*|
|-----------------|-----------------|-----------------|-----------------------*|
|-2---2-2---2---2-|-2---2---2-2-2---|-2---2-2---2---2-|-2---2---2-2---2---2-2-*|
|-0---0-0---0---0-|-0---0---0-0-0---|-0---0-0---0---0-|-0---0---0-0---0---0-0-*|



Duration Legend
---------------
W - whole; H - half; Q - quarter; E - 8th; S - 16th; T - 32nd; X - 64th; a - acciaccatura
+ - note tied to previous; . - note dotted; .. - note double dotted
Uncapitalized letters represent notes that are staccato (1/2 duration)
Irregular groupings are notated above the duration line
Duration letters will always appear directly above the note/fret number it represents the
duration for.  Duration letters with no fret number below them represent rests.  Multi-
bar rests are notated in the form Wxn, where n is the number of bars to rest for.  Low
melody durations appear below the staff

Tablature Legend
----------------
 h   - hammer-on
 p   - pull-off
 b   - bend
 pb  - pre-bend
 r   - bend release (if no number after the r, then release immediately)
 /\  - slide into or out of (from/to "nowhere")
 s   - legato slide
 S   - shift slide
 - natural harmonic
[n]  - artificial harmonic
n(n) - tapped harmonic
 ~   - vibrato
 tr  - trill
 T   - tap
 TP  - trem. picking
 PM  - palm muting
\n/  - tremolo bar dip; n = amount to dip
 \n  - tremolo bar down
 n/  - tremolo bar up
/n\  - tremolo bar inverted dip
 =   - hold bend; also acts as connecting device for hammers/pulls
 <> - volume swell (louder/softer)
 x   - on rhythm slash represents muted slash
 o   - on rhythm slash represents single note slash

Misc Legend
-----------
 |  - bar
||  - double bar
||o - repeat start
o|| - repeat end
*|  - double bar (ending)
 :  - bar (freetime)
 $  - Segno
 &  - Coda
Tempo markers -  = BPM(8/16=s8/s16), where s8 = swing 8ths, s16 = swing 16ths

Добавлено: 28.02.2012
Другие материалы по этой песне:

Страница создана 28.02.2012
http://primanota.ru/dillinger-escape-plan/babys-first-coffin-chords.htm
Привет, Гость.
Предлагаем пройти революционный курс по гитаре.
Подарок от PrimaNota.Ru, забирай!