PrimaNota.ru - самый крупный в мире бесплатный архив песенных текстов, аккордов, табулатур и нот


Dillinger Escape Plan - Party Smasher - таба, видео

Регистрация Запомнить меня
Войти через:  Facebook Google Twitter Vk Yandex Mail.ru

Dillinger Escape Plan - Party Smasher - таба, видео

Печатать
Просмотров: 151
DILLINGER ESCAPE PLAN - PARTY SMASHER (Ire Works)

STANDARD TUNING - EADGBe


|------------------|------------------|------------------|------------------|
|------------------|------------------|------------------|------------------|
|-8-7----------8-7-|------------------|-8-7----------8-7-|------------------|
|-------10-9-------|---10-9-----------|-------10-9-------|---10-9-----------|
|-6-5----------6-5-|------------------|-6-5----------6-5-|------------------|
|--------8-7-------|----8-7-7-7-7-7-7-|--------8-7-------|----8-7-7-7-7-7-7-|
                          pm---------                             ---------

|------------------|------------------|------------------|------------------|
|------------------|------------------|------------------|------------------|
|-8-7----------8-7-|------------------|-8-7----------8-7-|------------------|
|-------10-9-------|---10-9-----------|-------10-9-------|---10-9-----------|
|-6-5----------6-5-|------------------|-6-5----------6-5-|------------------|
|--------8-7-------|----8-7-7-7-7-7-7-|--------8-7-------|----8-7-7-7-7-7-7-|
                          pm---------                             ---------



|---------------------------------|
|---------------------------------|
|-----6-6---------8-8-8-8---------|
|-5-5-----8-8-8-8---------7-7-7-7-|
|---------------------------------|
|---------------------------------|
pm-------------------------------

|----------------------------------|--------------------|
|----------------------------------|--------------------|
|-7-7-7-7--------------------------|--------------------|
|---------6-6-6-6----------6-7-8-9-|-----------7-8-9-10-|
|-----------------7-8-9-10---------|-8-9-10-11----------|
|----------------------------------|--------------------|
pm-----------------------------------------------------



|------------------|------------------|------------------|------------------|
|------------------|------------------|------------------|------------------|
|-8-7----------8-7-|------------------|-8-7----------8-7-|------------------|
|-------10-9-------|---10-9-----------|-------10-9-------|---10-9-----------|
|-6-5----------6-5-|------------------|-6-5----------6-5-|------------------|
|--------8-7-------|----8-7-7-7-7-7-7-|--------8-7-------|----8-7-7-7-7-7-7-|
                          pm---------                             ---------

|------------------|------------------|------------------|------------------|
|------------------|------------------|------------------|------------------|
|-8-7----------8-7-|------------------|-8-7----------8-7-|------------------|
|-------10-9-------|---10-9-----------|-------10-9-------|---10-9-----------|
|-6-5----------6-5-|------------------|-6-5----------6-5-|------------------|
|--------8-7-------|----8-7-7-7-7-7-7-|--------8-7-------|----8-7-7-7-7-7-7-|
                          pm---------                             ---------



|---------------------------------|
|---------------------------------|
|-----6-6---------8-8-8-8---------|
|-5-5-----8-8-8-8---------7-7-7-7-|
|---------------------------------|
|---------------------------------|
pm-------------------------------
                                
|----------------------------------|--------------------|
|----------------------------------|--------------------|
|-7-7-7-7--------------------------|--------------------|
|---------6-6-6-6----------6-7-8-9-|-----------7-8-9-10-|
|-----------------7-8-9-10---------|-8-9-10-11----------|
|----------------------------------|--------------------|
pm-----------------------------------------------------

|------------------------------------|------------------------|
|------------------------------------|------------------------|
|------------------------------------|------------------------|
|-6----------------------------------|------------------------|
|---5---5---5-5----8-9-10-11---8---7-|---6-5--------5-5-------|
|------------------------------------|------------------------|
pm------------------------------------------        ---

|---------------------------------|-----------------|
|---------------------------------|-----------------|
|-----6-6---------8-8-8-8---------|-7-7-7-7---------|
|-5-5-----8-8-8-8---------7-7-7-7-|---------6-6-6-6-|
|---------------------------------|-----------------|
|---------------------------------|-----------------|
pm-------------------------------------------------                            



|-----------------|------------------|----------------------------|
|-------------8---|------------------|-----------------------10---|
|-9-----8-7-6---6-|---9-----10---9-8-|-7-11------12-------12----8-|
|---8-------------|-5---8------9-----|------10------11------------|
|-----7-----------|-------7----------|---------9-------10---------|
|-----------------|------------------|----------------------------|



|---------------------------|---------------------------------|
|---------------------------|---------------------------------|
|---------------------------|-----6-6---------8-8-8-8---------|
|---------------------------|-5-5-----8-8-8-8---------7-7-7-7-|
|-8-9-10-11---8---7---6-5---|---------------------------------|
|---------------------------|---------------------------------|
pm-----------------------------------------------------------

|----------------------------------|--------------------|
|----------------------------------|--------------------|
|-7-7-7-7--------------------------|--------------------|
|---------6-6-6-6----------6-7-8-9-|-----------7-8-9-10-|
|-----------------7-8-9-10---------|-8-9-10-11----------|
|----------------------------------|--------------------|
pm-----------------------------------------------------

|----------------------|-------------------|
|----------------------|-------------------|
|----------------------|-10--------10------|
|-6--------------------|--8---------8------|
|---5---5---5-5--------|--8-9-------8-9----|
|----------------------|----7---------7----|
pm-------------



|----------------|---------------------|
|----------------|---------------------|
|----------------|---------------------|
|----------6-6-6-|-------------6-6-6-6-|
|-2---2-2--4-4-4-|-2----2-2-2--4-4-4-4-|
|-0---0-0--4-4-4-|-0----0-0-0--4-4-4-4-|

|----------------|--------------------|----------0-|
|----------------|--------------------|----------0-|
|----------------|--------------------|------------|
|----------6-6-6-|------------6-6-6-6-|------------|
|-2---2-2--4-4-4-|-2---2-2-2--4-4-4-4-|-6----3-----|
|-0---0-0--4-4-4-|-0---0-0-0--4-4-4-4-|-4----1-----|



|---------------------------------|
|---------------------------------|
|-----6-6---------8-8-8-8---------|
|-5-5-----8-8-8-8---------7-7-7-7-|
|---------------------------------|
|---------------------------------|
pm-------------------------------
                                 
|----------------------------------|---------------------|
|----------------------------------|---------------------|
|-7-7-7-7--------------------------|---------------------|
|---------6-6-6-6----------6-7-8-9-|-----------7-8-9-10--|
|-----------------7-8-9-10---------|-8-9-10-11-----------|
|----------------------------------|---------------------|
pm-----------------------------------------------------

|------------------------------------|------------------------|
|------------------------------------|------------------------|
|------------------------------------|------------------------|
|-6----------------------------------|------------------------|
|---5---5---5-5----8-9-10-11---8---7-|---6-5--------5-5-------|
|------------------------------------|------------------------|
pm------------------------------------------        ---

|---------------------------------|-----------------------|
|---------------------------------|-----------------------|
|-----6-6---------8-8-8-8---------|-7-7-7-7---------------|
|-5-5-----8-8-8-8---------7-7-7-7-|---------6-6-6-6-------|
|---------------------------------|-----------------------|
|---------------------------------|-----------------------|
pm-------------------------------------------------



|-----------------|------------------|----------------------------|
|-------------8---|------------------|-----------------------10---|
|-9-----8-7-6---6-|---9-----10---9-8-|-7-11------12-------12----8-|
|---8-------------|-5---8------9-----|------10------11------------|
|-----7-----------|-------7----------|---------9-------10---------|
|-----------------|------------------|----------------------------|

|-----------------|------------------|----------------------------|
|-------------8---|------------------|-----------------------10---|
|-9-----8-7-6---6-|---9-----10---9-8-|-7-11------12-------12----8-|
|---8-------------|-5---8------9-----|------10------11------------|
|-----7-----------|-------7----------|---------9-------10---------|
|-----------------|------------------|----------------------------|

|-----------------|------------------|----------------------------|
|-------------8---|------------------|-----------------------10---|
|-9-----8-7-6---6-|---9-----10---9-8-|-7-11------12-------12----8-|
|---8-------------|-5---8------9-----|------10------11------------|
|-----7-----------|-------7----------|---------9-------10---------|
|-----------------|------------------|----------------------------|



|---------------------------|---------------------------------|
|---------------------------|---------------------------------|
|---------------------------|-----6-6---------8-8-8-8---------|
|---------------------------|-5-5-----8-8-8-8---------7-7-7-7-|
|-8-9-10-11---8---7---6-5---|---------------------------------|
|---------------------------|---------------------------------|
pm-----------------------------------------------------------

|----------------------------------|--------------------|
|----------------------------------|--------------------|
|-7-7-7-7--------------------------|--------------------|
|---------6-6-6-6----------6-7-8-9-|-----------7-8-9-10-|
|-----------------7-8-9-10---------|-8-9-10-11----------|
|----------------------------------|--------------------|
pm-----------------------------------------------------

|----------------------|-----------------|
|----------------------|-----------------|
|----------------------|--[pick scrape]--|
|-6--------------------|-----------------|
|---5---5---5-5--------|-----------------|
|----------------------|-----------------|
pm-------------



|----------------|--------------------|
|----------------|--------------------|
|----------------|--------------------|
|----------6-6-6-|------------6-6-6-6-|
|-2---2-2--4-4-4-|-2---2-2-2--4-4-4-4-|
|-0---0-0--4-4-4-|-0---0-0-0--4-4-4-4-|

|----------------|--------------------|--------|
|----------------|--------------------|--------|
|----------------|--------------------|--------|
|----------6-6-6-|------------6-6-6-6-|--------|
|-2---2-2--4-4-4-|-2---2-2-2--4-4-4-4-|-6----3-|
|-0---0-0--4-4-4-|-0---0-0-0--4-4-4-4-|-4----1-|

|-0--0--------|--------------------|
|-0--0--------|--------------------|
|-------------|--------------------|
|-------6-6-6-|------------6-6-6-6-|
|-------4-4-4-|-2-2-2-2-2--4-4-4-4-|
|-------4-4-4-|-0-0-0-0-0--4-4-4-4-|

|----------------|--------------------|-------------|
|----------------|--------------------|-------------|
|----------------|--------------------|-------------|
|----------6-6-6-|------------6-6-6-6-|--------[9]--|
|-2---2-2--4-4-4-|-2---2-2-2--4-4-4-4-|-6----3------|
|-0---0-0--4-4-4-|-0---0-0-0--4-4-4-4-|-4----1------|



|-----------------------|-------------------|
|-----------------------|-------------------|
|-----------------------|-------------------|
|-----------------------|-------------------|
|-2--2------2--2-2------|-2--2------2--2-2--|
|-0--0------0--0-0------|-0--0------0--0-0--|

|-17-13----------13-17-13-|----------13-17-13-------|----13-17----|
|-------15----15----------|-15----15----------15----|-15----------|
|----------14-------------|----14----------------14-|-------------|
|-------------------------|-------------------------|-------------|
|-------------------------|-------------------------|-------------|
|-------------------------|-------------------------|-------------|

|-------------------|-------------------|
|-------------------|-------------------|
|-------------------|-------------------|
|-------------------|-------------------|
|-------2--2-2------|-2--2------2--2-2--|
|-------0--0-0------|-0--0------0--0-0--|

Добавлено: 05.07.2012
Другие материалы по этой песне:

Страница создана 22.06.2012
http://primanota.ru/dillinger-escape-plan/party-smasher-chords.htm
Привет, Гость.
Предлагаем пройти революционный курс по гитаре.
Подарок от PrimaNota.Ru, забирай!