PrimaNota.ru - самый крупный в мире бесплатный архив песенных текстов, аккордов, табулатур и нот


Dillinger Escape Plan - Black Bubblegum - таба, видео

Регистрация Запомнить меня
Войти через:  Facebook Google Twitter Vk Yandex Mail.ru

Dillinger Escape Plan - Black Bubblegum - таба, видео

Печатать
Просмотров: 223
DILLINGER ESCAPE PLAN - BLACK BUBBLEGUM (Ire Works)

STANDARD TUNING - EADGBe


--------------------------------------------------------|
------0---------0----------0-----0--------0----------0--|
------0---------0----------0-----0--------0----------0--|
------0---------0----------0-----0--------0----------0--|
--2-2------2-2-------2-2-2---2-2------2-2------2-2-2----|
--0-0------0-0-------0-0-0---0-0------0-0------0-0-0----|
pm---      ---       -----   ---      ---      -----

--------------------------------------------------------|
------0---------0----------0-----0--------0----------0--|
------0---------0----------0-----0--------0----------0--|
------0---------0----------0-----0--------0----------0--|
--5-5------5-5-------5-5-5---5-5------5-5------5-5-5----|
--3-3------3-3-------3-3-3---3-3------3-3------3-3-3----|
pm---      ---       -----   ---      ---      -----

--------------------------------------------------------|
------0---------0----------0-----0--------0----------0--|
------0---------0----------0-----0--------0----------0--|
------0---------0----------0-----0--------0----------0--|
--2-2------2-2-------2-2-2---2-2------2-2------2-2-2----|
--0-0------0-0-------0-0-0---0-0------0-0------0-0-0----|
pm---      ---       -----   ---      ---      -----

--------------------------------------------------------|
------0---------0----------0-----0--------0----------0--|
------0---------0----------0-----0--------0----------0--|
------0---------0----------0-----0--------0----------0--|
--5-5------5-5-------5-5-5---5-5------5-5------5-5-5----|
--3-3------3-3-------3-3-3---3-3------3-3------3-3-3----|
pm---      ---       -----   ---      ---      -----

--------------------------------------------------------|
------0---------0----------0-----0--------0----------0--|
------0---------0----------0-----0--------0----------0--|
------0---------0----------0-----0--------0----------0--|
--2-2------2-2-------2-2-2---2-2------2-2------2-2-2----|
--0-0------0-0-------0-0-0---0-0------0-0------0-0-0----|
pm---      ---       -----   ---      ---      -----

--------------------------------------------------------|
------0---------0----------0-----0--------0----------0--|
------0---------0----------0-----0--------0----------0--|
------0---------0----------0-----0--------0----------0--|
--5-5------5-5-------5-5-5---5-5------5-5------5-5-5----|
--3-3------3-3-------3-3-3---3-3------3-3------3-3-3----|
pm---      ---       -----   ---      ---      -----

-------------------------------------------------------|
-------------------------------------------------------|
-------------------------------------------------------|
-------------------------------------3-----------------|
-5--------3--------6--------5--------1--------6--------|
-3--------1--------4--------3-----------------4--------|

------------------------------------------------------------------|
------------------------------------------------------------------|
------------------------------------------------------------------|
------------------------------------------------------------------|
-5-5-5-5-5-5-5-5-3-3-3-3-3-3-3-3-6-6-6-6-6-6-6-6-5-5-5-5-5-5-5-5--|
-3-3-3-3-3-3-3-3-1-1-1-1-1-1-1-1-4-4-4-4-4-4-4-4-3-3-3-3-3-3-3-3--|

--------------------------------------------------|
--------------------------------------------------|
--------------------------------------------------|
-3-3-3-3-3-3-3-3----------------------------------|
-1-1-1-1-1-1-1-1-6-6-6-6-6-6-6-6-6-6-6-6-6-6-6-6--|
-----------------4-4-4-4-4-4-4-4-4-4-4-4-4-4-4-4--|

guitar 1
------------------------------------------------------------------|
------------------------------------------------------------------|
---------------------------------4-4-4-4-4-4-7-7-8-8-8-8-8-8-8-8--|
-5-5-5-5-5-5-5-5-5-5-5-5-5-5-5-5----------------------------------|
-3-3-3-3-3-3-3-3-3-3-3-3-3-3-3-3-2-2-2-2-2-2-5-5-6-6-6-6-6-6-6-6--|
------------------------------------------------------------------|

guitar 2
------------------------------------------------------------------|
------------------------------------------------------------------|
------------------------------------------------------------------|
-5-5-5-5-5-5------------------------------------------------------|
-3-3-3-3-3-3-5-5-6-6-6-6-6-6-6-6-5-5-5-5-5-5-5-5-3-3-3-3-3-3-3-3--|
-------------3-3-4-4-4-4-4-4-4-4-3-3-3-3-3-3-3-3-1-1-1-1-1-1-1-1--|

guitar 1
------------------------------------------------------------------|
------------------------------------------------------------------|
---------------------------------4-4-4-4-4-4-4-4------------------|
-5-5-5-5-5-5-5-5-5-5-5-5-5-5-5-5----------------------------------|
-3-3-3-3-3-3-3-3-3-3-3-3-3-3-3-3-2-2-2-2-2-2-2-2-3-3-3-3-3-3-3-3--|
-------------------------------------------------1-1-1-1-1-1-1-1--|

guitar 2
------------------------------------------------------------------|
------------------------------------------------------------------|
------------------------------------------------------------------|
-5-5-5-5-5-5------------------------------------------------------|
-3-3-3-3-3-3-5-5-6-6-6-6-6-6-6-6-5-5-5-5-5-5-5-5-3-3-3-3-3-3-3-3--|
-------------3-3-4-4-4-4-4-4-4-4-3-3-3-3-3-3-3-3-1-1-1-1-1-1-1-1--|

--------------------------------------------------------|
------0---------0----------0-----0--------0----------0--|
------0---------0----------0-----0--------0----------0--|
------0---------0----------0-----0--------0----------0--|
--2-2------2-2-------2-2-2---2-2------2-2------2-2-2----|
--0-0------0-0-------0-0-0---0-0------0-0------0-0-0----|
pm---      ---       -----   ---      ---      -----

--------------------------------------------------------|
------0---------0----------0-----0--------0----------0--|
------0---------0----------0-----0--------0----------0--|
------0---------0----------0-----0--------0----------0--|
--2-2------2-2-------2-2-2---2-2------2-2------2-2-2----|
--0-0------0-0-------0-0-0---0-0------0-0------0-0-0----|
pm---      ---       -----   ---      ---      -----

--------------------------------------------------------|
------0---------0----------0-----0--------0----------0--|
------0---------0----------0-----0--------0----------0--|
------0---------0----------0-----0--------0----------0--|
--5-5------5-5-------5-5-5---5-5------5-5------5-5-5----|
--3-3------3-3-------3-3-3---3-3------3-3------3-3-3----|
pm---      ---       -----   ---      ---      -----

guitar 1
--------------------------------------------------------------------|
------0---------0---------------0-----0---------0----------------0--|
------0---------0---------------0-----0---------0----------------0--|
------0---------0---------------0-----0---------0----------------0--|
--2-2-------2-2-----------2-2-2---2-2---2-2-2-2----2-2-2-2-2-2-2----|
--0-0-------0-0-----------0-0-0---0-0---0-0-0-0----0-0-0-0-0-0-0----|
pm---       ---           -----   ---   -------    -------------


guitar 2
--------------------------------------------------------------------|
------0---------0---------------0-----0---------0----------------0--|
------0---------0---------------0-----0---------0----------------0--|
------0---------0---------------0-----0---------0----------------0--|
--2-2---2-2-2-2---2-2-2-2-2-2-2---2-2---2-2-2-2----2-2-2-2-2-2-2----|
--0-0---0-0-0-0---0-0-0-0-0-0-0---0-0---0-0-0-0----0-0-0-0-0-0-0----|
pm---   -------   -------------   ---   -------    -------------


guitar 1
--------------------------------------------------------------------|
------0---------0---------------0-----0---------0----------------0--|
------0---------0---------------0-----0---------0----------------0--|
------0---------0---------------0-----0---------0----------------0--|
--5-5-------5-5-----------5-5-5---5-5---5-5-5-5----5-5-5-5-5-5-5----|
--3-3-------3-3-----------3-3-3---3-3---3-3-3-3----3-3-3-3-3-3-3----|
pm---       ---           -----   ---   -------    -------------


guitar 2
--------------------------------------------------------------------|
------0---------0---------------0-----0---------0----------------0--|
------0---------0---------------0-----0---------0----------------0--|
------0---------0---------------0-----0---------0----------------0--|
--5-5---5-5-5-5---5-5-5-5-5-5-5---5-5---5-5-5-5----5-5-5-5-5-5-5----|
--3-3---3-3-3-3---3-3-3-3-3-3-3---3-3---3-3-3-3----3-3-3-3-3-3-3----|
pm---   -------   -------------   ---   -------    -------------

-------------------------------------------------------|
-------------------------------------------------------|
-------------------------------------------------------|
-------------------------------------3-----------------|
-5--------3--------6--------5--------1--------6--------|
-3--------1--------4--------3-----------------4--------|

------------------------------------------------------------------|
------------------------------------------------------------------|
------------------------------------------------------------------|
------------------------------------------------------------------|
-5-5-5-5-5-5-5-5-3-3-3-3-3-3-3-3-6-6-6-6-6-6-6-6-5-5-5-5-5-5-5-5--|
-3-3-3-3-3-3-3-3-1-1-1-1-1-1-1-1-4-4-4-4-4-4-4-4-3-3-3-3-3-3-3-3--|

------------------------------------------------------------------|
------------------------------------------------------------------|
------------------------------------------------------------------|
-3-3-3-3-3-3-3-3--------------------------------------------------|
-1-1-1-1-1-1-1-1-6-6-6-6-6-6-6-6-6-6-6-6-6-6-6-6-6-6-6-6-6-6-6-6--|
-----------------4-4-4-4-4-4-4-4-4-4-4-4-4-4-4-4-4-4-4-4-4-4-4-4--|

guitar 1
------------------------------------------------------------------|
------------------------------------------------------------------|
---------------------------------4-4-4-4-4-4-7-7-8-8-8-8-8-8-8-8--|
-5-5-5-5-5-5-5-5-5-5-5-5-5-5-5-5----------------------------------|
-3-3-3-3-3-3-3-3-3-3-3-3-3-3-3-3-2-2-2-2-2-2-5-5-6-6-6-6-6-6-6-6--|
------------------------------------------------------------------|

guitar 2
------------------------------------------------------------------|
------------------------------------------------------------------|
------------------------------------------------------------------|
-5-5-5-5-5-5------------------------------------------------------|
-3-3-3-3-3-3-5-5-6-6-6-6-6-6-6-6-5-5-5-5-5-5-5-5-3-3-3-3-3-3-3-3--|
-------------3-3-4-4-4-4-4-4-4-4-3-3-3-3-3-3-3-3-1-1-1-1-1-1-1-1--|

guitar 1
------------------------------------------------------------------|
------------------------------------------------------------------|
---------------------------------4-4-4-4-4-4-4-4------------------|
-5-5-5-5-5-5-5-5-5-5-5-5-5-5-5-5----------------------------------|
-3-3-3-3-3-3-3-3-3-3-3-3-3-3-3-3-2-2-2-2-2-2-2-2-3-3-3-3-3-3-3-3--|
-------------------------------------------------1-1-1-1-1-1-1-1--|

guitar 2
------------------------------------------------------------------|
------------------------------------------------------------------|
------------------------------------------------------------------|
-5-5-5-5-5-5------------------------------------------------------|
-3-3-3-3-3-3-5-5-6-6-6-6-6-6-6-6-5-5-5-5-5-5-5-5-3-3-3-3-3-3-3-3--|
-------------3-3-4-4-4-4-4-4-4-4-3-3-3-3-3-3-3-3-1-1-1-1-1-1-1-1--|


guitar 1
------------------------------------------------------------------|
------------------------------------------------------------------|
---------------------------------4-4-4-4-4-4-7-7-8-8-8-8-8-8-8-8--|
-5-5-5-5-5-5-5-5-5-5-5-5-5-5-5-5----------------------------------|
-3-3-3-3-3-3-3-3-3-3-3-3-3-3-3-3-2-2-2-2-2-2-5-5-6-6-6-6-6-6-6-6--|
------------------------------------------------------------------|

guitar 2
------------------------------------------------------------------|
------------------------------------------------------------------|
------------------------------------------------------------------|
-5-5-5-5-5-5------------------------------------------------------|
-3-3-3-3-3-3-5-5-6-6-6-6-6-6-6-6-5-5-5-5-5-5-5-5-3-3-3-3-3-3-3-3--|
-------------3-3-4-4-4-4-4-4-4-4-3-3-3-3-3-3-3-3-1-1-1-1-1-1-1-1--|

guitar 1
------------------------------------------------------------------|
------------------------------------------------------------------|
---------------------------------4-4-4-4-4-4-4-4------------------|
-5-5-5-5-5-5-5-5-5-5-5-5-5-5-5-5----------------------------------|
-3-3-3-3-3-3-3-3-3-3-3-3-3-3-3-3-2-2-2-2-2-2-2-2-3-3-3-3-3-3-3-3--|
-------------------------------------------------1-1-1-1-1-1-1-1--|

guitar 2
------------------------------------------------------------------|
------------------------------------------------------------------|
------------------------------------------------------------------|
-5-5-5-5-5-5------------------------------------------------------|
-3-3-3-3-3-3-5-5-6-6-6-6-6-6-6-6-5-5-5-5-5-5-5-5-3-3-3-3-3-3-3-3--|
-------------3-3-4-4-4-4-4-4-4-4-3-3-3-3-3-3-3-3-1-1-1-1-1-1-1-1--|

w/wah
-------------------------------------------------------|
------------------------5b-----------------------------|
-8----8b----8b----8b----------8b----8b----8b----8b-----|
-8----8b----8b----8b----------8b----8b----8b----8b-----|
-------------------------------------------------------|
----0-----0-----0-----0-----------0-----0-----0-----0--|
pm  -     -     -     -           -     -     -     -

-------------------------------------------------------------------------------|
-------------------------------------------------------------------------------|
-8----9----10----11----12---13---14----15----16----17--[fret ascending noise]--|
-8----9----10----11----12---13---14----15----16----17--------------------------|
-------------------------------------------------------------------------------|
----0----0-----0-----0----0----0-----0-----0-----0-----------------------------|
pm  -    -     -     -    -    -     -     -     -


-------------------------------------------------------------0----|
-------------------------------------------------------------0----|
------------------------------------------------------------------|
------------------------------------------------------------------|
------------------------------------------------------------------|
------------------------------------------------------------------|

guitar 1
------------------------------------------------------------------|
------------------------------------------------------------------|
---------------------------------4-4-4-4-4-4-7-7-8-8-8-8-8-8-8-8--|
-5-5-5-5-5-5-5-5-5-5-5-5-5-5-5-5----------------------------------|
-3-3-3-3-3-3-3-3-3-3-3-3-3-3-3-3-2-2-2-2-2-2-5-5-6-6-6-6-6-6-6-6--|
------------------------------------------------------------------|

guitar 2
------------------------------------------------------------------|
------------------------------------------------------------------|
------------------------------------------------------------------|
-5-5-5-5-5-5------------------------------------------------------|
-3-3-3-3-3-3-5-5-6-6-6-6-6-6-6-6-5-5-5-5-5-5-5-5-3-3-3-3-3-3-3-3--|
-------------3-3-4-4-4-4-4-4-4-4-3-3-3-3-3-3-3-3-1-1-1-1-1-1-1-1--|


guitar 1
------------------------------------------------------------------|
------------------------------------------------------------------|
---------------------------------4-4-4-4-4-4-4-4------------------|
-5-5-5-5-5-5-5-5-5-5-5-5-5-5-5-5----------------------------------|
-3-3-3-3-3-3-3-3-3-3-3-3-3-3-3-3-2-2-2-2-2-2-2-2-3-3-3-3-3-3-3-3--|
-------------------------------------------------1-1-1-1-1-1-1-1--|

guitar 2
------------------------------------------------------------------|
------------------------------------------------------------------|
------------------------------------------------------------------|
-5-5-5-5-5-5------------------------------------------------------|
-3-3-3-3-3-3-5-5-6-6-6-6-6-6-6-6-5-5-5-5-5-5-5-5-3-3-3-3-3-3-3-3--|
-------------3-3-4-4-4-4-4-4-4-4-3-3-3-3-3-3-3-3-1-1-1-1-1-1-1-1--|


guitar 1
------------------------------------------------------------------|
------------------------------------------------------------------|
---------------------------------4-4-4-4-4-4-7-7-8-8-8-8-8-8-8-8--|
-5-5-5-5-5-5-5-5-5-5-5-5-5-5-5-5----------------------------------|
-3-3-3-3-3-3-3-3-3-3-3-3-3-3-3-3-2-2-2-2-2-2-5-5-6-6-6-6-6-6-6-6--|
------------------------------------------------------------------|

guitar 2
------------------------------------------------------------------|
------------------------------------------------------------------|
------------------------------------------------------------------|
-5-5-5-5-5-5------------------------------------------------------|
-3-3-3-3-3-3-5-5-6-6-6-6-6-6-6-6-5-5-5-5-5-5-5-5-3-3-3-3-3-3-3-3--|
-------------3-3-4-4-4-4-4-4-4-4-3-3-3-3-3-3-3-3-1-1-1-1-1-1-1-1--|

guitar 1
------------------------------------------------------------------|
------------------------------------------------------------------|
---------------------------------4-4-4-4-4-4-4-4------------------|
-5-5-5-5-5-5-5-5-5-5-5-5-5-5-5-5----------------------------------|
-3-3-3-3-3-3-3-3-3-3-3-3-3-3-3-3-2-2-2-2-2-2-2-2-3-3-3-3-3-3-3-3--|
-------------------------------------------------1-1-1-1-1-1-1-1--|

guitar 2
------------------------------------------------------------------|
------------------------------------------------------------------|
------------------------------------------------------------------|
-5-5-5-5-5-5------------------------------------------------------|
-3-3-3-3-3-3-5-5-6-6-6-6-6-6-6-6-5-5-5-5-5-5-5-5-3-3-3-3-3-3-3-3--|
-------------3-3-4-4-4-4-4-4-4-4-3-3-3-3-3-3-3-3-1-1-1-1-1-1-1-1--|
Добавлено: 22.06.2012
Другие материалы по этой песне:

Страница создана 24.02.2012
http://primanota.ru/dillinger-escape-plan/black-bubblegum-chords.htm
Привет, Гость.
Предлагаем пройти революционный курс по гитаре.
Подарок от PrimaNota.Ru, забирай!