PrimaNota.ru - самый крупный в мире бесплатный архив песенных текстов, аккордов, табулатур и нот


Diiv - Healthy Moon - таба, видео

Регистрация Запомнить меня
Войти через:  Facebook Google Twitter Vk Yandex Mail.ru

Diiv - Healthy Moon - таба, видео

Печатать
Просмотров: 89
-------------------------------------------------------------------------------
                             Healthy Moon - DIIV
-------------------------------------------------------------------------------
Tabbed by: Bryan Killingsworth
Email: 7thharm@gmail.com

Tuning: Standard
NOTE: Repeat the main riff for the whole song (except the intro, of course). 
The main riff is 4 measures long and the lead guitar line is 7 measures so they repeat at different cycles. 

[Intro (4 measures)]

e|------------|
B|------------|
G|------------| x8
D|------7-----|
A|------------|
E|--6-6-------|

[Main Riff (4 measures)]

e|-----------------------------------------------------------------------|
B|------------------------6--------8-------------------------------------|
G|-------5-------7--------------------------7----------------------------|  x2
D|--------------------------------------------------7-------7-------7----|
A|-----------------------------------------------------------------------|
E|--6-6-----6-6------6-6------6-6------6-6-----6-6-----6-6-----6-6-------|

[Lead part 1 (7 measures)]

e|--------------------------------------------------------------------------------------------------|
B|------------------------------------------13-13---------------------------------------------------|
G|--5-5-7-7-10-10-12-12-14-14-----12-12---------------12-12-----14-14-----12-12-----12-12-----12-12-|
D|--------------------------------------------------------------------------------------------------|
A|--------------------------------------------------------------------------------------------------|
E|--------------------------------------------------------------------------------------------------|

e|-------12-----12------10------10---10-----------|
B|--/15-----15-----15------13-----13---13\\\------|
G|------------------------------------------------|   x2
D|------------------------------------------------|
A|------------------------------------------------|
E|------------------------------------------------|

[Lead part 2 (7 measures)]

e|--------------------------------------------------------------------------------------------------|
B|------------------------------------------11--11-13-----------------------------------------------|
G|--5-5-7-7-10-10-12-12-14-14-----12-12---------------12--------12-12-----12-12-----12-12-----12-12-|
D|--------------------------------------------------------------------------------------------------|
A|--------------------------------------------------------------------------------------------------|
E|--------------------------------------------------------------------------------------------------|

e|-------12-----12------10------10---10-----------|
B|--/15-----15-----15------13-----13---13\\\------|
G|------------------------------------------------|   x1
D|------------------------------------------------|
A|------------------------------------------------|
E|------------------------------------------------|

[Verse lead fill]

e|---------------------------|
B|---------------------------|
G|--5-5-7-7-10-10-12-12-14---|  (last note rings and vocal starts at 3rd measure of repeated main riff)
D|---------------------------|
A|---------------------------|
E|---------------------------|



************************************

| /   slide up
| \   slide down
| h   hammer-on
| p   pull-off
| ~   vibrato
| +   harmonic
| x   Mute note
| b   Bend
| pb  Pre-bend
| br  Bend release
| pbr Pre-bend release
| brb Bend release bend

************************************
Добавлено: 23.03.2016
Вам также может быть интересно:
Другие материалы по этой песне:
  • Аккорды и текст

Страница создана 23.03.2016
http://primanota.ru/diiv/healthy-moon-chords.htm
Привет, Гость.
Предлагаем пройти революционный курс по гитаре.
Подарок от PrimaNota.Ru, забирай!