PrimaNota.ru - самый крупный в мире бесплатный архив песенных текстов, аккордов, табулатур и нот


Devildriver - Monsters Of The Deep - текст песни, таба, бас-таба, видео

Регистрация Запомнить меня
Войти через:  Facebook Google Twitter Vk Yandex Mail.ru

Devildriver - Monsters Of The Deep - текст песни, таба, бас-таба, видео

Печатать
Просмотров: 182
"Monsters of the Deep" by DevilDriver
Drop A (A E A D F# B)
Tabbed by Osiris12

Key:
/ = Slide down
\ = Slide up
h = Hammer-on
p = Pull-off
x = Muted Note

. = Palm Mute
' = Tremolo Pick
* = Harmonic

-Still not good with leads so the lead on the 2nd verse
 and the solo are kinda beyond me. Tips welcome. 

[Riff 1]
 x2
|------------|------------|
|------------|------------|
|------------|------------|
|------------|------------|
|------------|------------|
|-/12\--0--0-|-/12\--15\--|
        .            .'

[Riff 2]
|----------------------------------|
|----------------------------------|
|----------------------------------|
|----------------------------------|
|----------------------------------|
|-00000000-0--b-r--00000000-0--b-r-| x2
  ........         ........

|----------------------------------|
|----------------------------------|
|----------------------------------|
|----------------------------------|
|----------------------------------|
|-00000000-4-3--3-00000000-2-2-2-1-|
  ........        ........

[Riff 3]
|---------------------------------------------------|-|
|---------------------------------------------------| |
|---------------------------------------------------| |
|-4----4----4----4----4--4--6----6----7----8-8-8----| |
|-2--0-2--0-2--0-2--0-2--2--4--0-4--0-5--0-6-6-6----| |
|-2--0-2--0-2--0-2--0-2--2--4--0-4--0-5--0-6-6-6-7b-| |
     .    .    .    .          .    .    .            | - x2
|----------------------------------|                  |
|----------------------------------|                  |
|----------------------------------|                  |
|----------------------------------|                  |
|----------------------------------|                  |
|-00000000-0--b-r--00000000-0--b-r-| x2 --------------|
  ........         ........

|----------------------------------|
|----------------------------------|
|----------------------------------|
|----------------------------------|
|----------------------------------|
|-00000000-4-3--3-00000000-2-2-2-1-|
  ........        ........

[Riff 4]
|---------------------------------------------------------------|
|---------------------------------------------------------------|
|---------------------------------------------------------------|
|-0-2--4/5--5-5-5-4-4-4-4-2-2-2-2-0-2--4--4-4-4-2-2-2-2-1-1-1-1-|
|-0-2--4/5--5-5-5-4-4-4-4-2-2-2-2-0-2--4--4-4-4-2-2-2-2-1-1-1-1-|
|-0-2--4/5--5-5-5-4-4-4-4-2-2-2-2-0-2--4--4-4-4-2-2-2-2-1-1-1-1-|

[Fill]
|------|
|------|
|------|
|------|
|------|
|-0--0-|
  .

[Riff 5]
|-------------------------------------------------------------------------|
|-------------------------------------------------------------------------|
|-------------------------------------------------------------------------|
|-----7-------7---------10----------10------------------------------------|
|---7---7---7---7----10----10----10----10-4-4-4-4-4-4-4-4-2-2-2-2-2-2-2-2-|
|-7-------7-------10----------10----------4-4-4-4-4-4-4-4-2-2-2-2-2-2-2-2-| x2

|-------------------------------------------------------------------------|
|-------------------------------------------------------------------------|
|-------------------------------------------------------------------------|
|-------------------------------------------------------------------------|
|-7-7-7-7-7-7-7-7-10-10-10-10-10-10-10-10-4-4-4-4-4-4-4-4-2-2-2-2-2-2-2-2-|
|-7-7-7-7-7-7-7-7-10-10-10-10-10-10-10-10-4-4-4-4-4-4-4-4-2-2-2-2-2-2-2-2-| x2

[Riff 6]
|---------------------------------------|
|---------------------------------------|
|---------------------------------------|
|---------------------------------------|
|---------------------------------------|
|-00000--00000--00000--00000--0000-/10\-| x3
  .....  .....  .....  .....  ....

|---------------------------------|
|---------------------------------|
|---------------------------------|
|---------------------------------|
|---------------------------------|
|-0-1b--0-1b--0-1b--2-2-2-3-3-4-4-|

Structure:
[Riff 1]
[Riff 2] x2
[Riff 3]
[Riff 4] x2
[Riff 2]
[Riff 3]
[Riff 4] x2
[Fill]
[Riff 1]
[Riff 5]
[Riff 4] x2
[Riff 6] x2
Добавлено: 06.06.2012
Другие материалы по этой песне:

Страница создана 06.03.2012
http://primanota.ru/devildriver/monsters-of-the-deep-chords.htm
Привет, Гость.
Предлагаем пройти революционный курс по гитаре.
Подарок от PrimaNota.Ru, забирай!