PrimaNota.ru - самый крупный в мире бесплатный архив песенных текстов, аккордов, табулатур и нот


Devildriver - Ripped Apart - текст песни, таба, видео

Регистрация Запомнить меня
Войти через:  Facebook Google Twitter Vk Yandex Mail.ru

Devildriver - Ripped Apart - текст песни, таба, видео

Печатать
Просмотров: 148
Devildriver 
Ripped Apart
Another song that wasnt tabbed on the internet
Tuning, Low to High
B, F#, B, E, G#, C#


If the lines get screwed, just go to Microsoft Word and fix it.

PM |----| = Palm Mute
/ = Slide
^ = instead of bend, either a pull off or a hammer on, sorry for the confusion
H = Harmonic

Main Riff

|---------------------------------|-------------------------------------------------|
|---------------------------------|-------------------------------------------------|
|---------------------------------|-------------------------------------------------|
|---------------------------------|-------------------------------------------------|
|---------------------------------|-------------------------------------------------|
|-0-0-3-3-2-2-3-3-8-8-7-7-2-2-3-3-|-0-0-3-3-2-2-3-3-8-8-7-7-2-2-3-3------|
PM |-------------------------------|

Next Part

|------------------------------------------------------------------|
|------------------------------------------------------------------|
|------------------------------------------------------------------|
|------------------------------------------------------------------|
|------------------------------------------------------------------|
|-5^7-0^5^7-0^7^0-7^8-0^7^8-0^8^0-3^5-0^3^5-0^3^0-2^3-0^2^3-0^5^0--|


|--------------------------------------------------------------------|
|--------------------------------------------------------------------|
|--------------------------------------------------------------------|
|-------------7---------------10-------------------------------------|
|-5^7-0-5^7-0---0-7^8-0-7^8-0----0-3^5-0-3^5-0-3-0-2^3-0-2^3-0-------|
|-5^7-0-5^7-0---0-7^8-0-7^8-0----0-3^5-0-3^5-0-3-0-2^3-0-2^3-0-3/2---|
PM ....................................
Lead and Rhythm Put Together
The Rhythm is palm muted throughout


|------------------------------------------------------------------|
|------------------------------------------------------------------|
|--------7-------------------5-------------------------------------|
|-5-7-----------------3-5---------------3^2----2--------3----------|
|---------------------------------------------------------3---3----|
|-0-0-0-0-0-0-0-0-0-0-0-0-0-0-0-0-0-0-0-0-0-0-0-0-0-0-0-0-0-0-0-0--|

|------------------------------------------------------------------|
|------------------------------------------------------------------|
|--------7-----------------5---------------------------------------|
|-5-7---------------3-5--------------5^2----2----------3-----------|
|---------------------------------------------------------3---3----|
|-0-0-0-0-0-0-0-0-0-0-0-0-0-0-0-0-0-0-0-0-0-0-0-0-0-0-0-0-0-0-0-0--|

Very Similar, only with fast picking

|-------------------------------------------------------------|
|-------------------------------------------------------------|
|-------------------------------------------------------------|
|-------------------------------------------------------------|
|-5^7--7-------7^8--8-------5^3--3----------3^2--2------------|
|-5^7--7-0-000-7^8--8-0-000-5^3--3-3-3333---3^2--2-2-222------|
PM ........................................

Slightly different than the main riff

|----------------------------------|
|----------------------------------|
|----------------------------------|
|----------------------------------|
|-0---3---2---3---8---7---2---3----|
|-0---3---2---3---8---7---2---3----|

Big, big Interlude, that Im not 100% sure about







Part 1

Main Riff transitions straight into this
Part 1 part2 Part 3
|-------------------|--------------------------|---------------------------------------|
|-------------------|--------------------------|---------------------------------------|
|------13-----------|--------------------------|---------------------------------------|
|-6----12-----------|--------------------------|---------------------------------------|
|-5----11-----------|--------------------------|---------------------------------------|
|-6-----/////\-|-3-3-3-3-0--0-000-0-000-0-|-3-3-3-3-0-000-000-000-3-3-3-3-000-000-|
huge slide… PM |----------------| |-------------| |-------|

Part 4: Very strange rhythm or timing or something

|-------------------------------------------|
|-------------------------------------------|
|-------------------------------------------|
|-------------6-6-----6-6-------------------|
|-------------5-5-----5-5-------------------|
|-3-3-3-3-0-0-6-6-0-0-6-6-0-0-3-3-3-3-3-0---|
PM |-| |---| |---| 
Part 5: Two guitars obviously

|-------------------------------------------------------------------------------------------|
|-------------------------------------------------------------------------------------------|
|-------------13-13-----13-13-----13-13--------------13-13-----13-13-----13-13--------------|
|-------------12-12-----12-12-----12-12--------------12-12-----12-12-----12-12--------------|
|-------------11-11-0-0-11-11-0-0-11-11--------------11-11-0-0-11-11-0-0-11-11--------------|
|-3-3-3-3/6-0-------0-0-------0-0-------15-15-15/6-0-------0-0-------0-0-------3-3-3-3/6-0--| and so on…
PM |---| |---| |---| |---| 

Part 6: Very strange rhythm and chords Pay very close attention

|---------------------------------------------------------------|
|---------------------------------------------------------------|
|---------------------------------------------------------------|
|---------------------------------------------------------------|
|-------------11---11---7---7---8-----------6---6---7---7---8---|
|-3-3-3-3-0-0-12-0-12-0-8-0-8-0-9-0-3-3-3-0-7-0-7-0-8-0-8-0-9-0-|repeated...
PM |-| |-| |-| |-| |-| |-| |-| |-| |-| |-| 





Part 7

|-------------------------------------|
|-------------------------------------|
|-------------------------------------|
|-------------------------------------|
|-5t~~---------------8t~~4t~~5t~~~~---|
|-------7t~~8t~~~~--------------------|

Ending Riff

|-------------------------|--------------------------------------|
|-------------------------|--------------------------------------|
|-------------------------|--------------------------------------|
|-------------------------|--------------------------------------|
|-3-0-0-0-0-0-0-0-0-0-0-0-|-0-0-0-0-0-0-0-0-0-0-0-0-0----|
|-3-0-0-0-0-0-0-0-0-0-0-0-|-3-3-3-3-0-0-0-0-0-0-0-0-0-0-0-0-0-|
PM |-------------------| |-----------------------|

Same riff, but with triplet picking...
|---------------------------------------|
|---------------------------------------|
|---------------------------------------|
|---------------------------------------|
|---------000-000-000-000-000-000-000--|
|-3-3-3-3-000-000-000-000-000-000-000--|
PM |---------------------------|

Ending
|------------------------------------------------------------------------------------------|
|------------------------------------------------------------------------------------------|
|-7-------7-------7-------7-------7-------7-------10-------10---10/9-----------------------|
|------------------------------------------------------------------------------------------|
|---5-5-5---5-5-5---5-5-5---5-5-5---8-8-8---8-8-8----8-8-8----8----------------------------|
|------------------------------------------------------------------------------------------|
Добавлено: 15.04.2012
Другие материалы по этой песне:

Страница создана 10.04.2012
http://primanota.ru/devildriver/ripped-apart-chords.htm
Привет, Гость.
Предлагаем пройти революционный курс по гитаре.
Подарок от PrimaNota.Ru, забирай!