PrimaNota.ru - самый крупный в мире бесплатный архив песенных текстов, аккордов, табулатур и нот


Devildriver - Not All Who Wander Are Lost - текст песни, таба, видео

Регистрация Запомнить меня
Войти через:  Facebook Google Twitter Vk Yandex Mail.ru

Devildriver - Not All Who Wander Are Lost - текст песни, таба, видео

Печатать
Просмотров: 161
Уроки эстрадного вокала в Санкт-Петербурге
Its not perfect, but sounds ok, still working on the rest of the song.

Guitar 1:
d|----------------------------------------|
a|----------------------------------------|
f|----------------------------------------|
c|----------------------------------------|
g|----------------------------------------|
c|-0-5-7-8-0-0-0-0-12/8-0-8-0-0-0-0-------|

Guitar 2:
d|-----------------------------------------|
a|-----------------------------------------|
f|-----------------------------------------|
c|-0~--------------------------------------|
g|-0~--------------------------------------|
c|-0~--------------------------------------|

Guitar 1:
d|--------------------------------------|
a|--------------------------------------|
f|--------------------------------------|
c|--------------------------------------|
g|--------------------------0-0-0-------|
c|-0-5-7-8-0-0-0-0-12/8-0-8-0-0-0-------|
                            . . .
Guitar 2:
d|---------------------------------------|
a|---------------------------------------|
f|---------------------------------------|
c|~~-------------------------------------|
g|~~------------------------0-0-0--------|
c|~~------------------------0-0-0--------|
                            . . .

Guitar 1:
d|----------------------------------------|
a|----------------------------------------|
f|----------------------------------------|
c|----------------------------------------|
g|----------------------------------------|
c|-0-5-7-8-0-0-0-0-12/8-0-8-0-0-0-0-------|

Guitar 2:
d|-----------------------------------------|
a|-----------------------------------------|
f|-----------------------------------------|
c|-0~--------------------------------------|
g|-0~--------------------------------------|
c|-0~--------------------------------------|

Guitar 1:
d|-----------------------------------|
a|-----------------------------------|
f|-----------------------------------|
c|-----------------------------------|
g|-----------------------------------|
c|-12/8-8-8-8-8-8-8-11/7-7-7-7-7-7-7-|

Guitar 2:
d|-------------------------------------|
a|-------------------------------------|
f|-------------------------------------|
c|-------------------------------------|
g|-------------------------------------|
c|-12/8-8-8-8-8-8-8-11/7-7-7-7-7-7-7-7-|


Both Guitars:
d|----------------------------------------|
a|----------------------------------------|
f|----------------------------------------|
c|----------------------------------------|
g|----------------------------------------|
c|-0-5-7-8-0-0-0-0-12/8-0-8-0-0-0-0-------|


d|--------------------------------------|
a|--------------------------------------|
f|--------------------------------------|
c|--------------------------------------|
g|--------------------------0-0-0-------|
c|-0-5-7-8-0-0-0-0-12/8-0-8-0-0-0-------|
                            . . .


d|----------------------------------------|
a|----------------------------------------|
f|----------------------------------------|
c|----------------------------------------|
g|----------------------------------------|
c|-0-5-7-8-0-0-0-0-12/8-0-8-0-0-0-0-------|


d|-------------------------------------|
a|-------------------------------------|
f|-------------------------------------|
c|-------------------------------------|
g|-------------------------------------|
c|-12/8-8-8-8-8-8-8-11/7-7-7-7-7-7-7-7-|

d|-------------------------------------|
a|-------------------------------------|
f|-------------------------------------|
c|-------------------------------------|
g|-------------------------------------|
c|-7/3-3-3-3-3-3-3-6/2-2-2-2-2-2-2-2-2-|


d|------------------------------------------|
a|------------------------------------------|
f|------------------------------------------|
c|------------------------------------------|
g|-0-5-7-8-------------------------10/5-7-8-|
c|---------0-0-0-0-6-6-6-5-0-0-0-0----------|
           .   .           .   .

d|----------------------------------------------------------|
a|----------------------------------------------------------|
f|----------------------------------------------------------|
c|----------------------------------------------------------|
g|--------------------------0-5-7-8-------------------------|
c|--0-0-0-0-3-3-3-6-0-0-0-0---------0-0-0-0-6-6-6-5-0-0-0-0-|
    .   .           .   .           .   .           .   .

d|-------------------------------------|
a|-------------------------------------|
f|-------------------------------------|
c|-------------------------------------|
g|-------------------------------------|
c|-12/8-8-8-8-8-8-8-11/7-7-7-7-7-7-7-7-|


d|------------------------------------------|
a|------------------------------------------|
f|------------------------------------------|
c|------------------------------------------|
g|-0-5-7-8-------------------------10/5-7-8-|
c|---------0-0-0-0-6-6-6-5-0-0-0-0----------|
           .   .           .   .

d|----------------------------------------------------------|
a|----------------------------------------------------------|
f|----------------------------------------------------------|
c|----------------------------------------------------------|
g|--------------------------0-5-7-8-------------------------|
c|--0-0-0-0-3-3-3-6-0-0-0-0---------0-0-0-0-6-6-6-5-0-0-0-0-|
    .   .           .   .           .   .           .   .

d|-------------------------------------|
a|-------------------------------------|
f|-------------------------------------|
c|-------------------------------------|
g|-------------------------------------|
c|-12/8-8-8-8-8-8-8-11/7-7-7-7-7-7-7-7-|

d|-------------------------------------|
a|-------------------------------------|
f|-------------------------------------|
c|-------------------------------------|
g|-------------------------------------|
c|-7/3-3-3-3-3-3-3-6/2-2-2-2-2-2-2-2-2-|


d|------------------------------------------|
a|------------------------------------------|
f|------------------------------------------|
c|------------------------------------------|
g|-0-5-7-8-------------------------10/5-7-8-|
c|---------0-0-0-0-6-6-6-5-0-0-0-0----------|
           .   .   . . .   .   .

d|----------------------------------------------------------|
a|----------------------------------------------------------|
f|----------------------------------------------------------|
c|----------------------------------------------------------|
g|--------------------------0-5-7-8-------------------------|
c|--0-0-0-0-3-3-3-6-0-0-0-0---------0-0-0-0-6-6-6-5-0-0-0-0-|
    .   .   . . .   .   .           .   .   . . .   .   .

d|-------------------------------------|
a|-------------------------------------|
f|-------------------------------------|
c|-------------------------------------|
g|-------------------------------------|
c|-12/8-8-8-8-8-8-8-11/7-7-7-7-7-7-7-7-|


d|------------------------------------------|
a|------------------------------------------|
f|------------------------------------------|
c|------------------------------------------|
g|-0-5-7-8-------------------------10/5-7-8-|
c|---------0-0-0-0-6-6-6-5-0-0-0-0----------|
           .   .   . . .   .   .

d|----------------------------------------------------------|
a|----------------------------------------------------------|
f|----------------------------------------------------------|
c|----------------------------------------------------------|
g|--------------------------0-5-7-8-------------------------|
c|--0-0-0-0-3-3-3-6-0-0-0-0---------0-0-0-0-6-6-6-5-0-0-0-0-|
    .   .   . . .   .   .           .   .   . . .   .   .

d|-------------------------------------|
a|-------------------------------------|
f|-------------------------------------|
c|-------------------------------------|
g|-------------------------------------|
c|-12/8-8-8-8-8-8-8-11/7-7-7-7-7-7-7-7-|

d|-------------------------------------|
a|-------------------------------------|
f|-------------------------------------|
c|-------------------------------------|
g|-------------------------------------|
c|-7/3-3-3-3-3-3-3-6/2-2-2-2-2-2-2-2-2-|


d|-------------------------------|
a|-------------------------------|
f|--Repeat 2x--------------------|
c|-------------------------------|
g|---------------------------8-8-|
c|-0h5h7h8-0h5h7h8-0h5h7h8p0-8-8-|

d|------------------------|
a|------------------------|
f|-9-9-9-9-9-7-7-7--------|
c|-x-x-x-x-x-x-x-x--------|
g|-7-7-7-7-7-5-5-5--------|
c|-0-0-0-0-0-0-0-0--------|


d|----------------------------------------|
a|----------------------------------------|
f|-7-----7-7-7-----7-7-7------7-7-7-------|
c|-x-----x-x-x-----x-x-x------x-x-x-------|
g|-5-----5-5-5-----5-5-5------5-5-5-------|
c|---3-0-------3-0--------3-0--------3-0--|

d|---------------------------------------------|
a|---------------------------------------------|
f|-7-7-4-----4-4-4-----4-4-5-----5-5-5-----7-7-|
c|-x-x-x-----x-x-x-----x-x-x-----x-x-x-----x-x-|Repeat
g|-5-5-2-----2-2-2-----2-2-3-----3-3-3-----5-5-|
c|-------3-0-------3-0-------3-0-------3-0-----|

d|---------------------------------------|
a|---------------------------------------|
f|---------------------------------------|
c|---------------------------------------|Repeat 2x
g|---------------------------------------|
c|-0-5-7-8-0-0-0-0-12/8-0-8-0-0-0-0------|


d|-------------------------------------|
a|-------------------------------------|
f|-------------------------------------|
c|-------------------------------------|
g|-------------------------------------|
c|-12/8-8-8-8-8-8-8-11/7-7-7-7-7-7-7-7-|


d|------------------------------------------|
a|------------------------------------------|
f|------------------------------------------|
c|------------------------------------------|
g|-0-5-7-8-------------------------10/5-7-8-|
c|---------0-0-0-0-6-6-6-5-0-0-0-0----------|
           .   .   . . .   .   .

d|----------------------------------------------------------|
a|----------------------------------------------------------|
f|----------------------------------------------------------|
c|----------------------------------------------------------|
g|--------------------------0-5-7-8-------------------------|
c|--0-0-0-0-3-3-3-6-0-0-0-0---------0-0-0-0-6-6-6-5-0-0-0-0-|
    .   .   . . .   .   .           .   .   . . .   .   .

d|-------------------------------------|
a|-------------------------------------|
f|-------------------------------------|
c|-------------------------------------|
g|-------------------------------------|
c|-12/8-8-8-8-8-8-8-11/7-7-7-7-7-7-7-7-|


d|------------------------------------------|
a|------------------------------------------|
f|------------------------------------------|
c|------------------------------------------|
g|-0-5-7-8-------------------------10/5-7-8-|
c|---------0-0-0-0-6-6-6-5-0-0-0-0----------|
           .   .   . . .   .   .

d|----------------------------------------------------------|
a|----------------------------------------------------------|
f|----------------------------------------------------------|
c|----------------------------------------------------------|
g|--------------------------0-5-7-8-------------------------|
c|--0-0-0-0-3-3-3-6-0-0-0-0---------0-0-0-0-6-6-6-5-0-0-0-0-|
    .   .   . . .   .   .           .   .   . . .   .   .

d|-------------------------------------|
a|-------------------------------------|
f|-------------------------------------|
c|-------------------------------------|
g|-------------------------------------|
c|-12/8-8-8-8-8-8-8-11/7-7-7-7-7-7-7-7-|

d|-------------------------------------|
a|-------------------------------------|
f|-------------------------------------|
c|-------------------------------------|
g|-------------------------------------|
c|-7/3-3-3-3-3-3-3-6/2-2-2-2-2-2-2-2-2-|


d|-------------------------------|
a|-------------------------------|
f|--Repeat 2x--------------------|
c|-------------------------------|
g|---------------------------8-8-|
c|-0h5h7h8-0h5h7h8-0h5h7h8p0-8-8-|

d|------------------------|
a|------------------------|
f|-9-9-9-9-9-7-7-7--------|
c|-x-x-x-x-x-x-x-x--------|
g|-7-7-7-7-7-5-5-5--------|
c|-0-0-0-0-0-0-0-0--------|


d|----------------------------------------|
a|----------------------------------------|
f|-7-----7-7-7-----7-7-7------7-7-7-------|
c|-x-----x-x-x-----x-x-x------x-x-x-------|
g|-5-----5-5-5-----5-5-5------5-5-5-------|
c|---3-0-------3-0--------3-0--------3-0--|

d|---------------------------------------------|
a|---------------------------------------------|
f|-7-7-4-----4-4-4-----4-4-5-----5-5-5-----7-7-|
c|-x-x-x-----x-x-x-----x-x-x-----x-x-x-----x-x-|Repeat
g|-5-5-2-----2-2-2-----2-2-3-----3-3-3-----5-5-|
c|-------3-0-------3-0-------3-0-------3-0-----|
Добавлено: 29.05.2012
Другие материалы по этой песне:

Страница создана 19.03.2012
http://primanota.ru/devildriver/not-all-who-wander-are-lost-chords.htm
Привет, Гость.
Предлагаем пройти революционный курс по гитаре.
Подарок от PrimaNota.Ru, забирай!