PrimaNota.ru - самый крупный в мире бесплатный архив песенных текстов, аккордов, табулатур и нот


Devildriver - Driving Down The Darkness - текст песни, таба, видео

Регистрация Запомнить меня
Войти через:  Facebook Google Twitter Vk Yandex Mail.ru

Devildriver - Driving Down The Darkness - текст песни, таба, видео

Печатать
Просмотров: 140
this is mi 1st tab so sry if i get it worng.it wasnt ez tabin it the intro and not sure 
its 100% right but it works 4 me enjoy

[--------------------------------------------------------]
[--------------------------------------------------------]
[--------------------------------------------------------]
[--------------------------------------------------------]x3
[--------------------------------------------------------]
[0-0-0-7-6-0-6-0-5-4-0-4-2-3-0-0-------------------------]

[--------------------------------------------------------]
[--------------------------------------------------------]
[--------------------------------------------------------]
[--------------------------------------------------------]x1
[--------------------------------------------------------]
[0-0-0-7-6-0-6-0-3-0-3-0-2-0-2-0-------------------------]
repeat that again with both guitars

both guitars
[---------------------------------------------------------]
[---------------------------------------------------------]
[---------------------------------------------------------]
[7-7-6-6-5-5-4-4------------------------------------------]
[5-5-4-4-3-3-2-2-3-0-3-0-3-0-3-0-2-0-2-0-2-0-2-0----------]
[----------------3-0-3-0-3-0-3-0-2-0-2-0-2-0-2-0----------]
              pm[-----------------------------------------]

both guitars
[---------------------------------------------------------]
[---------------------------------------------------------]
[---------------------------------------------------------]
[---------------------------------------------------------]x3
[---2-2-2---2-2-2-2-2-2---2-2-2---2-2-2-2---0-0-----------]
[---2-2-2-2-2-2-2-2-2-2-3-2-2-2-2-2-2-2-2-3-0-0-0---------]
pm[------] [-----------] [-----] [-------] [--------------]


[---------------------------------------------------------]
[---------------------------------------------------------]
[---------------------------------------------------------]
[---------------------------------------------------------]x1
[---2-2-2---2-2-2-2-2-2-2---2-2-2---2-2-2-2-2-------------]
[---2-2-2-2-2-2-2-2-2-2-2-3-2-2-2-2-2-2-2-2-2-0-2-2-2-0---]
pm[------] [-------------] [-----] [---------] [----------]

guitar1
[---------------------------------------------------------]
[---------------------------------------------------------]
[---------------------------------------------------------]
[---------------------------------------------------------]x3
[---2-2-2---2-2-2-2-2-2---2-2-2---2-2-2-2---0-0-----------]
[---2-2-2-2-2-2-2-2-2-2-3-2-2-2-2-2-2-2-2-3-0-0-0---------]
pm[------] [-----------] [-----] [-------] [--------------]

[---------------------------------------------------------]
[---------------------------------------------------------]
[---------------------------------------------------------]
[---------------------------------------------------------]
[---2-2-2---2-2-2-2-2-2---2-2-2---2-2-2-2-----------------]
[---2-2-2-2-2-2-2-2-2-2-3-2-2-2-2-2-2-2-2-3---------------]
pm[------] [-----------] [-----] [------------------------]

[---------------------------------------------------------]
[---------------------------------------------------------]
[---------------------------------------------------------]
[7-7-6-6-5-5-4-4------------------------------------------]
[5-5-4-4-3-3-2-2-3-0-3-0-3-0-3-0-2-0-2-0-2-0-2-0----------]
[----------------3-0-3-0-3-0-3-0-2-0-2-0-2-0-2-0----------]
              pm[-----------------------------------------]

guitar2

[---------------------------------------------------------------]
[---------------------------------------------------------------]
[---------------------------------------------------------------]
[---------------------------------------------------------------]x2
[2-2-2-2-2-2-2-2-2-2-2-2-2-2-3-2-2-2-2-2-2-2-2-2-2-3-0-0-0------]
[---------------------------------------------------------------]

[---------------------------------------------------------------]
[2-2-2-2-2-2-2-2-2-2-2-2-2-2-3-2-2-2-2-2-2-2-2-2-2-3-0-0-0------]
[---------------------------------------------------------------]
[---------------------------------------------------------------]
[---------------------------------------------------------------]
[---------------------------------------------------------------]

[---------------------------------------------------------------]
[2-2-2-2-2-2-2-2-2-2-2-2-3-7-7-6-6-5-5-4-4-3-3-2-2-1-1-0-0------]
[---------------------------------------------------------------]
[---------------------------------------------------------------]
[---------------------------------------------------------------]
[---------------------------------------------------------------]


both guitars
[---------------------------------------------------------]
[---------------------------------------------------------]
[---------------------------------------------------------]
[---------------------------------------------------------]x3
[---2-2-2---2-2-2-2-2-2---2-2-2---2-2-2-2---0-0-----------]
[---2-2-2-2-2-2-2-2-2-2-3-2-2-2-2-2-2-2-2-3-0-0-0---------]
pm[------] [-----------] [-----] [-------] [--------------]

[---------------------------------------------------------]
[---------------------------------------------------------]
[---------------------------------------------------------]
[---------------------------------------------------------]x1
[---2-2-2---2-2-2-2-2-2-2---2-2-2---2-2-2-2-2-------------]
[---2-2-2-2-2-2-2-2-2-2-2-3-2-2-2-2-2-2-2-2-2-0-2-2-2-0---]
pm[------] [-------------] [-----] [---------] [----------]

guitar1
[---------------------------------------------------------]
[---------------------------------------------------------]
[---------------------------------------------------------]
[---------------------------------------------------------]x3
[---2-2-2---2-2-2-2-2-2---2-2-2---2-2-2-2---0-0-----------]
[---2-2-2-2-2-2-2-2-2-2-3-2-2-2-2-2-2-2-2-3-0-0-0---------]
pm[------] [-----------] [-----] [-------] [--------------]


[---------------------------------------------------------]
[---------------------------------------------------------]
[---------------------------------------------------------]
[---------------------------------------------------------]
[---2-2-2---2-2-2-2-2-2---2-2-2---2-2-2-2-----------------]
[---2-2-2-2-2-2-2-2-2-2-3-2-2-2-2-2-2-2-2-3---------------]
pm[------] [-----------] [-----] [------------------------]


[---------------------------------------------------------]
[---------------------------------------------------------]
[---------------------------------------------------------]
[7-7-6-6-5-5-4-4------------------------------------------]
[5-5-4-4-3-3-2-2-3-0-3-0-3-0-3-0-2-0-2-0-2-0-2-0----------]
[----------------3-0-3-0-3-0-3-0-2-0-2-0-2-0-2-0----------]
              pm[-----------------------------------------]

guitar2

[---------------------------------------------------------------]
[---------------------------------------------------------------]
[---------------------------------------------------------------]
[---------------------------------------------------------------]x2
[2-2-2-2-2-2-2-2-2-2-2-2-2-2-3-2-2-2-2-2-2-2-2-2-2-3-3-0-0-0----]
[---------------------------------------------------------------]

[---------------------------------------------------------------]
[2-2-2-2-2-2-2-2-2-2-2-2-2-2-3-2-2-2-2-2-2-2-2-2-2-3-0-0-0------]
[---------------------------------------------------------------]
[---------------------------------------------------------------]
[---------------------------------------------------------------]
[---------------------------------------------------------------]

[---------------------------------------------------------------]
[2-2-2-2-2-2-2-2-2-2-2-2-3-7-7-6-6-5-5-4-4-3-3-2-2-1-1-0-0------]
[---------------------------------------------------------------]
[---------------------------------------------------------------]
[---------------------------------------------------------------]
[---------------------------------------------------------------]
GUITAR1
[-----------------------------------------------------------------]
[-----------------------------------------------------------------]
[-----------------------------------------------------------------]
[-----------------------------------------------------------------]
[2-2-0-0-0-0-0-2-2-2-2-2-5-5-5-5-5--------------------------------]
[2-2-0-0-0-0-0-2-2-2-2-2-5-5-5-5-5--------------------------------]
    [-----]   [-----]   [-----------------------------------------]

[-----------------------------------------------------------------]
[-----------------------------------------------------------------]
[-----------------------------------------------------------------]
[-----------------------------------------------------------------]
[2-2-2-2-2-0-0-0-0-0-2-2-2----0H2H3-0H3H4-0H4H5-0H5H6-------------]
[2-2-2-2-2-0-0-0-0-0-2-2-2----------------------------------------]
[-----]   [-----]   [---------------------------------------------]

[-----------------------------------------------------------------]
[-----------------------------------------------------------------]
[-----------------------------------------------------------------]
[-----------------------------------------------------------------]
[2-2-0-0-0-0-0-2-2-2-2-2-5-5-5-5-5--------------------------------]
[2-2-0-0-0-0-0-2-2-2-2-2-5-5-5-5-5--------------------------------]
    [-----]   [-----]   [-----------------------------------------]

[-----------------------------------------------------------------]
[-----------------------------------------------------------------]
[-----------------------------------------------------------------]
[-----------------------------------------------------------------]
[2-2-2-2-2-0-0-0-0-0-2-2-2----0H2H3-0H3H4-0H4H5-0H5H6-------------]
[2-2-2-2-2-0-0-0-0-0-2-2-2----------------------------------------]
[-----]   [-----]   [---------------------------------------------]

[---------------------------------------------------------------]
[---------------------------------------------------------------]
[---------------------------------------------------------------]
[---------------------------------------------------------------]
[0H2H3-0H3H4-0H4H5-0H5H6----------------------------------------]
[---------------------------------------------------------------]

GUITAR2
[2-2-2-0-0-0-2-2-2-5-5-5-2-2-2-0-0-0-2-2-2-5-5-5----------------]
[---------------------------------------------------------------]
[---------------------------------------------------------------]
[---------------------------------------------------------------]
[---------------------------------------------------------------]
[---------------------------------------------------------------]

[2-2-2-0-0-0-2-2-2-5-5-5-2-2-2-0-0-0----------------------------]
[---------------------------------------------------------------]
[---------------------------------------------------------------]
[---------------------------------------------------------------]
[---------------------------------------------------------------]
[---------------------------------------------------------------]

[---------------------------------------------------------------]
[---------------------------------------------------------------]
[---------------------------------------------------------------]
[---------------------------------------------------------------]
[0H2H3-0H3H4-0H4H5-0H5H6----------------------------------------]
[---------------------------------------------------------------]

THERES THE BASIC IDEA THERES 1 MORE PART TO IT THAT IL TAB OUT LATER SHOULDNT BE TOO LONG

PM:[---]
H:HAMMER
TABS BY: RATHIC =P HAV FUN
PS:CANSOME1 TAB ARE YOU BREATHING FROM DISTURBED I CANT SEEM TO GET IT ={ PLZ AND TY
Добавлено: 08.04.2012
Другие материалы по этой песне:

Страница создана 13.03.2012
http://primanota.ru/devildriver/driving-down-the-darkness-chords.htm
Привет, Гость.
Предлагаем пройти революционный курс по гитаре.
Подарок от PrimaNota.Ru, забирай!