PrimaNota.ru - самый крупный в мире бесплатный архив песенных текстов, аккордов, табулатур и нот


Devildriver - Guilty As Sin - текст песни, таба, видео

Регистрация Запомнить меня
Войти через:  Facebook Google Twitter Vk Yandex Mail.ru

Devildriver - Guilty As Sin - текст песни, таба, видео

Печатать
Просмотров: 279
Guilty As Sin
Devildriver
Tabbed by: Jon Savas

Tuning: (low) C,F,A#,D#,G,C (high)

(tabs says eadgbe. it's not. had whole scale on copy & paste, too lazy to change. dont' 
fooled.)

Start with a downwards "slide" at the beginning

  Main/Course
e|-------------------------------------------------------------------------|
B|-------------------------------------------------------------------------|
G|--------------------------------------------------------------------7h9--|
D|----------------------------------------------------------------7h9------|
A|-----7-7-7-5-7b(8)----9-9-9-9-----10-10-10-10-10-10---------7h9----------|
E|--0----------------0-----------0---------------------0--5h7--------------|

e|---------------------------------------------------------------|
B|---------------------------------------------------------------|
G|---------------------------------------------------------------|
D|------------------------------------------------------0h2------|
A|--------------------------------------------------0h2-----0h2--|
E|--0--7-7-7-5-7b(8)-0--5-5-5-3--0--2-2-2-2-2h3-0-0--------------|

				 ^------"Pick Scratching"----^
				      2nd time though riff

  Verse
e|----------------------------------------------------------------------|
B|----------------------------------------------------------------------|
G|----------------------------------------------------------------------|
D|------------9-9-9-7-9----------11111111-9-----------12121212-9--2-2-2-|
A|------------7-7-7-5-7-----------9-9-9-9-7-----------10101010-7--2-2-2-|
E|--0-0-0-0-0-----------0-0-0-0-0-----------0-0-0-0-0-------------0-0-0-|

-------------------|
-------------------|
--------------7h9--|
----------7h9------|
------7h9----------|
--5h7--------------|

  There's dead leaves on the dirty ground...

e|----------------------------------------------|
B|----------------------------------------------|
G|----------------------------------------------|
D|----------------------------------------------|
A|-------------9-9-9\7-9-------------7-7-7-7-5--|
E|--0-0-0-0-0--7-7-7\5-7--0-0-0-0-0--5-5-5-5-3--|

--------------------------------------|
--------------------------------------|
--------------------------------------|
------------------------2-2-2--2-2-2--|
-------------5-5-5-5-4--2-2-2--2-2-2--|
--0-0-0-0-0--3-3-3-3-2--0-0-0--0-0-0--|

  I stroke your hair, kiss your lips, kiss the ground...

  2nd Verse
e|------------------------------------------|
B|------------------------------------------|
G|----9------7------5------4----------------|
D|----9------7------5------4-----5-7-5-4-2--|
A|----7------5------3------2-----5-7-5-4-2--|
E|-0------0------0------0------0-3-5-3-2-0--|
  I'm heading for the moon...I'm heading for the moon...

The verse and 2nd verse are probably wrong, but still follows and
sounds HEAVY!
I skipped the interlude part.
I just really focused on the main/coures cause it sounds cool.
Добавлено: 26.02.2012
Другие материалы по этой песне:

Страница создана 26.02.2012
http://primanota.ru/devildriver/guilty-as-sin-chords.htm
Привет, Гость.
Предлагаем пройти революционный курс по гитаре.
Подарок от PrimaNota.Ru, забирай!