PrimaNota.ru - самый крупный в мире бесплатный архив песенных текстов, аккордов, табулатур и нот


Devildriver - When Summoned - текст песни, таба, бас-таба, видео

Регистрация Запомнить меня
Войти через:  Facebook Google Twitter Vk Yandex Mail.ru

Devildriver - When Summoned - текст песни, таба, бас-таба, видео

Печатать
Просмотров: 185
-------------------------------------------------------------------------------
                             When Summoned - Devildriver
-------------------------------------------------------------------------------
Tabbed by: metalmonkey147
Email:

Tuning: Drop C

I hope you like the tab, this is an awesome song, I'm surprised it hasn't
been tabbed for guitar yet

|---------------------------------------------------------------------------|
|---------------------------------------------------------------------------|
|---------------------------------------------------------------------------|
|-0h1-2---------------------------0h1-2-------------------------------------|
|-0h1-2---------------------------0h1-2-------------------------------------|
|-0h1-2---2-2-2-2-2-2-2-2-2-2-2-2-0h1-2---2-2-2-2-2-2-2-2-2-2-2-2-----------|

|---------------------------------------------------------------------------|
|---------------------------------------------------------------------------|
|---------------------------------------------------------6-------5---------|
|-0h1-2-2-2-2-2-2-2-2-2-2-2-2-2-2-0h1-2-2-2-2-2-2-2-2-4-4-6-4-3-3-5-3-------|
|-0h1-2-2-2-2-2-2-2-2-2-2-2-2-2-2-0h1-2-2-2-2-2-2-2-2-4-4-4-4-3-3-3-3-------|
|-0h1-2-2-2-2-2-2-2-2-2-2-2-2-2-2-0h1-2-2-2-2-2-2-2-2-4-4---4-3-3---3-------|

|---------------------------------------------------------------------------|
|---------------------------------------------------------------------------|
|-----------------------------------------------------6-------5-------------|
|-2-2-2-3-2-2-0-1-2-2-2-5-2-2-0-1-2-2-2-3-2-2-0-1-4-4-6-4-3-3-5-3-----------|
|-2-2-2-3-2-2-0-1-2-2-2-5-2-2-0-1-2-2-2-3-2-2-0-1-4-4-4-4-3-3-3-3-----------|
|-2-2-2-3-2-2-0-1-2-2-2-5-2-2-0-1-2-2-2-3-2-2-0-1-4-4---4-3-3---3-----------|

|---------------------------------------------------------------------------|
|---------------------------------------------------------------------------|
|-----------------------------------------------------6---------------------|
|-2-2-2-3-2-2-0-1-2-2-2-5-2-2-0-1-2-2-2-3-2-2-0-1-4-4-6-4-3-3---------------|
|-2-2-2-3-2-2-0-1-2-2-2-5-2-2-0-1-2-2-2-3-2-2-0-1-4-4-4-4-3-3---------------|
|-2-2-2-3-2-2-0-1-2-2-2-5-2-2-0-1-2-2-2-3-2-2-0-1-4-4---4-3-3---------------|

|---------------------------------------------------------------------------|
|---------------------------------------------------------------------------|
|------------------------------------------------------6-------5------------|
|-0-1-2----------0-1-2----------0-1-2---(2)-----(2)4-4-6-4-3-3-5-3----------|
|-0-1-2----------0-1-2----------0-1-2---(2)-----(2)4-4-4-4-3-3-3-3----------|
|-0-1-2--22222-2-0-1-2--22222-2-0-1-2--22222-2-2-2-4-4---4-3-3---3----------|
         ....           ....
|---------------------------------------------------------------------------|
|---------------------------------------------------------------------------|
|--------------------------------------------------6-------5----------------|
|-2----------0-1-2------2---0-1-2--------------4-4-6-4-3-3-5-3--------------|
|-2----------0-1-2----------0-1-2--------------4-4-4-4-3-3-3-3--------------|
|-2--22222-2-0-1-2--222---2-0-1-2--22225-2-2-2-4-4---4-3-3---3--------------|
     ....           ...            ....
|---------------------------------------------------------------------------|
|---------------------------------------------------------------------------|
|--------------------------------------------------6-------5----------------|
|-2----------0-1-2------2---0-1-2--------------4-4-6-4-3-3-5-3--------------|
|-2----------0-1-2----------0-1-2--------------4-4-4-4-3-3-3-3--------------|
|-2--22222-2-0-1-2--222---2-0-1-2--22225-2-2-2-4-4---4-3-3---3--------------|
     ....           ...            ....
|---------------------------------------------------------------------------|
|---------------------------------------------------------------------------|
|-----------------------------------------------------6-------5-------------|
|-2-2-2-3-2-2-0-1-2-2-2-5-2-2-0-1-2-2-2-3-2-2-0-1-4-4-6-4-3-3-5-3-----------|
|-2-2-2-3-2-2-0-1-2-2-2-5-2-2-0-1-2-2-2-3-2-2-0-1-4-4-4-4-3-3-3-3-----------|
|-2-2-2-3-2-2-0-1-2-2-2-5-2-2-0-1-2-2-2-3-2-2-0-1-4-4---4-3-3---3-----------|

|---------------------------------------------------------------------------|
|---------------------------------------------------------------------------|
|-----------------------------------------------------6-------5-------------|
|-2-2-2-3-2-2-0-1-2-2-2-5-2-2-0-1-2-2-2-3-2-2-0-1-4-4-6-4-3-3-5-3-----------|
|-2-2-2-3-2-2-0-1-2-2-2-5-2-2-0-1-2-2-2-3-2-2-0-1-4-4-4-4-3-3-3-3-----------|
|-2-2-2-3-2-2-0-1-2-2-2-5-2-2-0-1-2-2-2-3-2-2-0-1-4-4---4-3-3---3-----------|

|---------------------------------------------------------------------------|
|---------------------------------------------------------------------------|
|---------------------------------------------------------------------------|
|-4-4-4-/11-----1-1-1-/8--------4-4-4-/11-----0-0-0-0-0-0-0-0---------------|
|-4-4-4-/9------1-1-1-/6--------4-4-4-/9------0-0-0-0-0-0-0-0---------------|
|-4-4-4---------1-1-1-----------4-4-4---------0-0-0-0-0-0-0-0---------------|

|---------------------------------------------------------------------------|
|---------------------------------------------------------------------------|
|---------------------------------------------------------------------------|
|-4-4-4-/11-----1-1-1-/8--------4-4-4-/11-----4-4-4-4-3-3-3-3---------------|
|-4-4-4-/9------1-1-1-/6--------4-4-4-/9------4-4-4-4-3-3-3-3---------------|
|-4-4-4---------1-1-1-----------4-4-4---------4-4-4-4-3-3-3-3---------------|

|---------------------------------------------------------------------------|
|---------------------------------------------------------------------------|
|---------------------------------------------------------------------------|
|---------------------------------3------3------5------1--------------------|
|---------------------------------3------3------5------1--------------------|
|-7-0---0-7-0---0-5-0-5-0-7-0-----3-333333-333335-555551-11111--------------|
                                    .....  .....  .....  .....
|---------------------------------------------------------------------------|
|---------------------------------------------------------------------------|
|---------------------------------------------------------------------------|
|---------------------------------3------3------5------1-1------------------|
|---------------------------------3------3------5------1-1------------------|
|-7-0---0-7-0---0-5-0-5-0-7-0-----3-333333-333335-555551-1------------------|
                                    .....  .....  .....
|---------------------------------------------------------------------------|
|---------------------------------------------------------------------------|
|---------------------------------------------------------------------------|
|-0h1-2---------------------------0h1-2-------------------------------------|
|-0h1-2---------------------------0h1-2-------------------------------------|
|-0h1-2---2-2-2-2-2-2-2-2-2-2-2-2-0h1-2---2-2-2-2-2-2-2-2-2-2-2-2-----------|

|---------------------------------------------------------------------------|
|---------------------------------------------------------------------------|
|---------------------------------------------------------6-------5---------|
|-0h1-2-2-2-2-2-2-2-2-2-2-2-2-2-2-0h1-2-2-2-2-2-2-2-2-4-4-6-4-3-3-5-3-------|
|-0h1-2-2-2-2-2-2-2-2-2-2-2-2-2-2-0h1-2-2-2-2-2-2-2-2-4-4-4-4-3-3-3-3-------|
|-0h1-2-2-2-2-2-2-2-2-2-2-2-2-2-2-0h1-2-2-2-2-2-2-2-2-4-4---4-3-3---3-------|

|---------------------------------------------------------------------------|
|---------------------------------------------------------------------------|
|--------------------------------------------------6-------5----------------|
|-2----------0-1-2------2---0-1-2--------------4-4-6-4-3-3-5-3--------------|
|-2----------0-1-2----------0-1-2--------------4-4-4-4-3-3-3-3--------------|
|-2--22222-2-0-1-2--222---2-0-1-2--22225-2-2-2-4-4---4-3-3---3--------------|
     ....           ...            ....
|---------------------------------------------------------------------------|
|---------------------------------------------------------------------------|
|--------------------------------------------------6-------5----------------|
|-2----------0-1-2------2---0-1-2--------------4-4-6-4-3-3-5-3--------------|
|-2----------0-1-2----------0-1-2--------------4-4-4-4-3-3-3-3--------------|
|-2--22222-2-0-1-2--222---2-0-1-2--22225-2-2-2-4-4---4-3-3---3--------------|
     ....           ...            ....
|---------------------------------------------------------------------------|
|---------------------------------------------------------------------------|
|-----------------------------------------------------6-------5-------------|
|-2-2-2-3-2-2-0-1-2-2-2-5-2-2-0-1-2-2-2-3-2-2-0-1-4-4-6-4-3-3-5-3-----------|
|-2-2-2-3-2-2-0-1-2-2-2-5-2-2-0-1-2-2-2-3-2-2-0-1-4-4-4-4-3-3-3-3-----------|
|-2-2-2-3-2-2-0-1-2-2-2-5-2-2-0-1-2-2-2-3-2-2-0-1-4-4---4-3-3---3-----------|

|---------------------------------------------------------------------------|
|---------------------------------------------------------------------------|
|-----------------------------------------------------6-------5-------------|
|-2-2-2-3-2-2-0-1-2-2-2-5-2-2-0-1-2-2-2-3-2-2-0-1-4-4-6-4-3-3-5-3-----------|
|-2-2-2-3-2-2-0-1-2-2-2-5-2-2-0-1-2-2-2-3-2-2-0-1-4-4-4-4-3-3-3-3-----------|
|-2-2-2-3-2-2-0-1-2-2-2-5-2-2-0-1-2-2-2-3-2-2-0-1-4-4---4-3-3---3-----------|

|---------------------------------------------------------------------------|
|---------------------------------------------------------------------------|
|---------------------------------------------------------------------------|
|-4-4-4-/11-----1-1-1-/8--------4-4-4-/11-----0-0-0-0-0-0-0-0---------------|
|-4-4-4-/9------1-1-1-/6--------4-4-4-/9------0-0-0-0-0-0-0-0---------------|
|-4-4-4---------1-1-1-----------4-4-4---------0-0-0-0-0-0-0-0---------------|

|---------------------------------------------------------------------------|
|---------------------------------------------------------------------------|
|---------------------------------------------------------------------------|
|-4-4-4-/11-----1-1-1-/8--------4-4-4-/11-----4-4-4-4-3-3-3-3---------------|
|-4-4-4-/9------1-1-1-/6--------4-4-4-/9------4-4-4-4-3-3-3-3---------------|
|-4-4-4---------1-1-1-----------4-4-4---------4-4-4-4-3-3-3-3---------------|

|---------------------------------------------------------------------------|
|---------------------------------------------------------------------------|
|---------------------------------------------------------------------------|
|---------------------------------3------3------5------1--------------------|
|---------------------------------3------3------5------1--------------------|
|-7-0---0-7-0---0-5-0-5-0-7-0-----3-333333-333335-555551-11111--------------|
                                    .....  .....  .....  .....
|---------------------------------------------------------------------------|
|---------------------------------------------------------------------------|
|---------------------------------------------------------------------------|
|---------------------------------3------3------5------1-1-1-1--------------|
|---------------------------------3------3------5------1-1-1-1--------------|
|-7-0---0-7-0---0-5-0-5-0-7-0-----3-333333-333335-555551-1-1-1--------------|
                                    .....  .....  .....
|---------------------------------------------------------------------------|
|---------------------------------------------------------------------------|
|---7-7---7-7---7-7---7-7---7-7-----6-6---6-6---6-6---6-6---6-6-------------|
|---7-7---7-7---7-7---7-7---7-7-----6-6---6-6---6-6---6-6---6-6-------------|
|---5-5---5-5---5-5---5-5---5-5-----4-4---4-4---4-4---4-4---4-4-------------|
|-5-----5-----5-----5-----5-------4-----4-----4-----4-----4-----------------|

|---------------------------------------------------------------------------|
|---------------------------------------------------------------------------|
|---5-5---5-5---5-5---5-5---5-5---7---7---7---7---7---7---7---7-------------|
|---5-5---5-5---5-5---5-5---5-5---7---7---7---7---7---7---7---7-------------|
|---3-3---3-3---3-3---3-3---3-3---5---5---5---5---5---5---5---5-------------|
|-3-----3-----3-----3-----3---------0---0---0---0---0---0---0---0-----------|
                                    .   .   .   .   .   .   .   .
|---------------------------------------------------------------------------|
|---------------------------------------------------------------------------|
|---7-7---7-7---7-7---7-7---7-7-----6-6---6-6---6-6---6-6---6-6-------------|
|---7-7---7-7---7-7---7-7---7-7-----6-6---6-6---6-6---6-6---6-6-------------|
|---5-5---5-5---5-5---5-5---5-5-----4-4---4-4---4-4---4-4---4-4-------------|
|-5-----5-----5-----5-----5-------4-----4-----4-----4-----4-----------------|

|--------------------------------|
|--------------------------------|
|---5-5---5-5---5-5---5-5---5-5--|
|---5-5---5-5---5-5---5-5---5-5--|
|---3-3---3-3---3-3---3-3---3-3--|
|-3-----3-----3-----3-----3------|

|---------------------------------------------------------------------------|
|---------------------------------------------------------------------------|
|-7---7---7---7---7---7---7---7---7---7---7---7---7/8-7/8-------------------|
|-7---7---7---7---7---7---7---7---7---7---7---7---7/8-7/8-10-10-10-10-------|
|-5---5---5---5---5---5---5---5---5---5---5---5---5/6-5/6-10-10-10-10-------|
|---0---0---0---0---0---0---0---0---0---0---0---0---------10-10-10-10-------|
    .   .   .   .   .   .   .   .   .   .   .   .
|---------------------------------------------------------------------------|
|---------------------------------------------------------------------------|
|------------------------------9h11-----------------------------------------|
|-1-1-1-1---10h12----3-3-3-3--------10-1-1-1-1---10h12----3-3-3-3---0-1-0---|
|-1-1-1-1---------10-3-3-3-3-----------1-1-1-1---------10-3-3-3-3---0-1-0---|
|-1-1-1-1------------3-3-3-3-----------1-1-1-1------------3-3-3-3---0-1-0---|

|---------------------------------------------------------------------------|
|---------------------------------------------------------------------------|
|------------------------------9h11-----------------------------------------|
|-1-1-1-1---10h12----3-3-3-3--------10-1-1-1-1---10h12----3-3-3-3---0-1-0---|
|-1-1-1-1---------10-3-3-3-3-----------1-1-1-1---------10-3-3-3-3---0-1-0---|
|-1-1-1-1------------3-3-3-3-----------1-1-1-1------------3-3-3-3---0-1-0---|

|---------------------------------------------------------------------------|
|---------------------------------------------------------------------------|
|---------------------------------------------------------------------------|
|---------------------------------------------------------------------------|
|---------------------------------------------------------------------------|
|-1111110-0-0-0-0-3333330-0-0-0-0-1111110-0-0-0-0-3333330-0-0-0-0-----------|
  ......  . .   . ......  . .   . ......  . .   . ......  . .   .
|---------------------------------------------------------------------------|
|---------------------------------------------------------------------------|
|---------------------------------------------------------------------------|
|---------------------------------------------------------------------------|
|---------------------------------------------------------------------------|
|-1111110-0-0-0-0-3333330-0-0-0-0-1111110-0-0-0-0-3333330-0-0-0-0-----------|
  ......  . .   . ......  . .   . ......  . .   . ......  . .   .
|----------------|
|----------------|
|----------------|
|---1-1-1-0------|
|---1-1-1-0------|
|---1-1-1-0------|


************************************

| .   palm mute
| /   slide up
| \   slide down
| h   hammer-on
| p   pull-off
| ~   vibrato
| *   harmonic
| x   Mute note
| b   Bend
| pb  Pre-bend
| br  Bend release
| pbr Pre-bend release
| brb Bend release bend

************************************
Добавлено: 01.04.2012
Другие материалы по этой песне:
  • Аккорды и текст

Страница создана 21.03.2012
http://primanota.ru/devildriver/when-summoned-chords.htm
Привет, Гость.
Предлагаем пройти революционный курс по гитаре.
Подарок от PrimaNota.Ru, забирай!