PrimaNota.ru - самый крупный в мире бесплатный архив песенных текстов, аккордов, табулатур и нот


Deftones - 976-evil - таба, видео

Регистрация Запомнить меня
Войти через:  Facebook Google Twitter Vk Yandex Mail.ru

Deftones - 976-evil - таба, видео

Печатать
Просмотров: 219
Авторы: Deftones

This is my first tab ever, i learned this song by ear while just jammin on my 7 string. 
The tuning is stephens original tuning which is G#C#F#BEG#C#. 
Hope it sounds descent to you guys...this is to all the deftones fans out there! :D


   BEGINING (PLAY THIS SECTION TILL CHORUS)
C#|-----------6----------6----------------6--|  -----6--------6-5---------------| 
G#|------8----------------------8------------|  ---------8----------------------|
E |----------------7----------------7--------|  --------------------------------| 
B |------------------------------------------|x3--------------------------------|
F#|------------------------------------------|  --------------------------------|
C#|------------------------------------------|  --------------------------------|
G#|------------------------------------------|  --------------------------------|


   CHORUS
C#|----------------------------------------------|  ----------------------------|
G#|----------------------------------------------|  ----------------------------|
E |----------------------------------------------|  ----------------------------|
B |----------------------------------------------|x2----------------------------|
F#|-------555------------------------------------|  --555------8-8-6--8---------|
C#|-------333-6666\-3333333333333--5-6666/-999\--|  --333-6666-6-6-4--6-6-------|
G#|-12\-------4444\-1111111111111--3-4444/-777\--|  ------4444----------4-------|

   LATER ON THERES A LONG SILENT PART AT 3:00
C#|------------------------------------------|  --------------------------------|
G#|------------------------------------------|  --------------------------------|
E |---------------------------10---10/12---7-|  --------------------------------|
B |------------------------------------------|  --------------------------------|
F#|-8-6---8----------------------------------|  -------6------------------------|x22
C#|-6-4---6-6------6-------------------------|  -------4------------------------|
G#|---------4--------4-----------------------|  --------------------------------|
                 (take off distortion here)
 
I dont really want to tab the whole thing cause well...idk how, but still i hope it works.
Just listen to the song and put it all together.
And i do believe i am the first to put a guitar tab for 976-evil..
have fun (: -Rikuu666
Добавлено: 26.06.2013
Другие материалы по этой песне:
  • Аккорды и текст

Страница создана 26.06.2013
http://primanota.ru/deftones/976-evil-chords.htm
Привет, Гость.
Предлагаем пройти революционный курс по гитаре.
Подарок от PrimaNota.Ru, забирай!