PrimaNota.ru - самый крупный в мире бесплатный архив песенных текстов, аккордов, табулатур и нот


Decapitated - Spheres Of Madness - текст песни, таба, бас-таба, видео

Регистрация Запомнить меня
Войти через:  Facebook Google Twitter Vk Yandex Mail.ru

Decapitated - Spheres Of Madness - текст песни, таба, бас-таба, видео

Печатать
Просмотров: 328
Decapitated - Spheres of Madness
Tabbed By: Metal Matt
E-Mail: Metal_Matt30@hotmail.com

KEY:
| /  slide up
| \  slide down
| h  hammer-on
| p  pull-off
| ~  vibrato
| +  harmonic
| x  Mute note
| .  palm mute
| ph pinch harmonic

The world needs more Decapitated tabs I figure so here goes...

Tuning - DGCFAD

Riff A
|---------------------------------------------------------|
|---------------------------------------------------------|
|---------------------------------------------------------|
|---------------------------------------------------------|
|---------------------------------------------------333-2-|
|-000-000--000--000000-000000--000-000--000--000000-111-0-|
  ... ...  ...  ...... ......  ... ...  ...  ...... ...

Riff B
|---------------------------------|------------------------------|
|---------------------------------|------------------------------|
|---------------------------------|------------------------------|
|-------------------996-----------|------------------------------|
|-885-----------885-----885-------|-885--------------------------|
|-----000-10107-------------10107-|-----000-10107-000-000-000000-|
  ... ... . . . ... ... ... . . .   ... ... . . . ... ... ......

Riff 1
|-------------------------------|--------------------|
|-------------------------------|--------------------|
|-------------------------------|--------------------|
|-------------------------------|--------------------|
|-2--5\4--2--5\4/6--2-----------|-2-5\4/6-2----------|
|-0--3\2--0--3\2/4--0--00000000-|-0-3\2/4-0--0000000-|
                       ........              .......

|---------------------|-----------------------|
|---------------------|-----------------------|
|---------------------|-----------------------|
|---------------------|-----------------------|
|-2-5\4/6-2-----------|-2-5\4/6-2------431----|
|-0-3\2/4-0--00000000-|-0-3\2/4-0--0000---433-|
             ........              ..........

Riff 1A
|--------------|---------------------|--------------|
|--------------|---------------------|--------------|
|--------------|---------------------|--------------|
|--------------|---------------------|--------------|
|-2-5\4/6-2--2-|-2-5\4/6-2--22222222-|-2-5\4/6-2--2-|
|-0-3\2/4-0--0-|-0-3\2/4-0--00000000-|-0-3\2/4-0--0-|
                            ........

|-----------------------|
|-----------------------|
|-----------------------|
|-----------------------|
|-2-5\4/6-2------431----|
|-0-3\2/4-0--0000---433-|
             ..........

Riff 2
|-------------------|-------------------|-------------------|
|-------------------|-------------------|-------------------|
|-------------------|-------------------|-------------------|
|----------10870787-|----------10870787-|----------10870787-|
|-------------------|-------------------|-------------------|
|-00000000----------|-00000000----------|-00000000----------|
  ........ . ......   ........ . ......   ........ . ......

|---------------------------|
|---------------------------|
|---------------------------|
|-12108081012-1412100101214-|
|---------------------------|
|---------------------------|
  . . .... .  . . . .. . .

Riff C
|---------------------------|-----------------------|
|---------------------------|-----------------------|
|---------------------------|-----------------------|
|---------------------------|-------4---------------|
|-4-5-4-----2--3--4--5--4---|-4-5-4-2-------------3-|
|-2-3-2-000--11-11-11-11-11-|-2-3-2---000-333-444-1-|
        ... ...............           ... ... ...

|---------------------------|-----------|
|---------------------------|-----------|
|---------------------------|-----------|
|---------------------------|-------4-5-|
|-4-5-4-----2--3--4--5--4---|-4-5-4-2-3-|
|-2-3-2-000--11-11-11-11-11-|-2-3-2-----|
        ... ...............   

Song Order:
Riff A (x4)
Riff B (x4)
Riff 1 (x1)
Riff 1A (x1)
Riff 2 (x4)
Riff A (x2)
Riff 1A (x1)
Riff 2 (x4)
Riff C (x3)
Riff B (x4)
Riff 1 (x1)
Riff 1A (x1)
Riff 2 (Fade Out)
Добавлено: 16.06.2012
Другие материалы по этой песне:

Страница создана 24.03.2012
http://primanota.ru/decapitated/spheres-of-madness-chords.htm
Привет, Гость.
Предлагаем пройти революционный курс по гитаре.
Подарок от PrimaNota.Ru, забирай!