PrimaNota.ru - самый крупный в мире бесплатный архив песенных текстов, аккордов, табулатур и нот


Decapitated - Eternity Too - таба, видео

Регистрация Запомнить меня
Войти через:  Facebook Google Twitter Vk Yandex Mail.ru

Decapitated - Eternity Too - таба, видео

Печатать
Просмотров: 146
Уроки эстрадного вокала в Санкт-Петербурге
Band- Decapitated
Song- Eternity Too

TUNING: D G C F A D

. - palm mute / - slide up to
\ - slide down to ~ - vibrato
h - hammer on p - pull off
, - slight palm mute () - ghost note, sustained note
" - tremolo note <> - Trill

Suffixes for bend
f - full bend h - half bend
ph - pinched harmonic q - quarter bend
t - tap bend * - see comment
^ - Hold bend r - release bend
x – Stuccatto ~ - vibrato bend

Riff 1 (play 4 times)
--------------------------------------------------------------------------------------------------------------|
--------------------------------------------------------------------------------------------------------------|
--------------------------------------------------------------------------------------------------------------|
-------------------------------------------1/2----------------------------------------------------------------|
-2------4------333---------222---------111-3/4----0/1--------8---4--------333---------222---------333-444-2---|
-0--666-2--222-----333-222-----222-111---------0--2/3-000000-6-0-2----222-----333-222-----222-111---------0---|
    ...    ... ... ... ... ... ... ... ...     .      ......   .      ... ... ... ... ...... ... ... ...


Riff 2
--------------------------------------------------------------------------------------------|
----------------------------------------------------------------------------------5-6-------|
---------------------------------------3h6p3p1-----------------6-7-6--4-6-7-6-4-6-----3-3---|
-----------------6h9------------------------------------------------------------------------|
-5-2---5-3-2-5-7----p8-5-2---5-3-2-5-7---------1-3-4-5-1-3-5--------------------------------|
-----4---------------------4---------------------------------4------------------------------|
 . . . . . . . .       . . . . . . . .         . . . . . . . .        . . . . . .

Solo over the top of Riff 2
---5h7h10p-p7h10h14h16---h14h16h21h22-------------------------|
-6h-------9-----------p15-------------19-15-15-11-11~--11-10--|
--------------------------------------------------------------|
--------------------------------------------------------------|
--------------------------------------------------------------|
--------------------------------------------------------------|

Fill 1
-------------------------|
-------------------------|
-------------------------|
-3-3---3-3---3-----4-----|
-1-1---1-1---1-1-1-2-----|
-1-1---1-1---1-----2-----|
 x x   x x   x . . x

Riff 3a
---------------------------------------------------------------------|
---------------------------------------------------------------------|
---------------------------------------------------------------------|
---------------------------------------------------------------------|
-2---------111111------------------111111------------------444444----|
-00003-3-3-------3-3-3-0000003-3-3-------3-3-3-0000003-3-3--------3--|
  .... . .       . . .       . . .       . . .       . . .        .
----------------------------------|
----------------------------------|
----------------------------------|
----------------------------------|
-------------------222222---------|
-3-3--000000333-333-------4212----|
 . .        ... ...       ,,,,

Riff 3b
--------------------------------------|--------|----------------|
--------------------------------------|-first--|-second ending--|
--------------------------------------|-ending-|----------------|
--------------------------------------|--------|----------------|
-------111111------------------222222-|--------|-5-4-3----------|
-3-3-3-------3-3-3-0000003-3-3--------|-3-3-3--|-3\2\1----------|
 . . .       . . .       . . .          . . .

Drum solo

Riff 4 - you can figure out yourself how many times each part gets played
------------------------------------------------------------------------------------|
------------------------------------------------------------------------------------|
------------------------------------------------------------------------------------|
------------------------------------------------------------------------7---3---3---|
-----------------------------66--------------------------6-5-4-5---3--6-5---1-3-1---|
-0005554443335544334466332255--333355443300220005554443334-3-2-3-0-1----5-0-1-1-1---|
 ........................................................        .    .   .


Solo over the top of Riff 4
-------18----14~-12-10p9h10-12-13-12-13-14-12-15-14-12-15-18-17-23-23-23--|
----12----17--------------------------------------------------------------|
-10-----------------------------------------------------------------------|
--------------------------------------------------------------------------|
--------------------------------------------------------------------------|
--------------------------------------------------------------------------|

Riff 5 (play 6 times)
Brackets indicate second time
Double brackets indicate fourth time
----------------------------------|--Don't play this on 6th time----|
----------------------------------|---------------------------------|
----------------------------------|---------------------------------|
----------------------------------|-------3-------------------------|
-0022335h6h8-----0022335h6h8------|-------1----------((2))----------|
------------5h6h8-----------5h6h8-|-0-(0)-1--0”------((0))----------|
 ......          ......             .  .  x  .


Riff 6a
------------------------------------------------------------------|
------------------------------------------------------------------|
------------------------------------------------------------------|
-------8---------5------------------------------------8---------5-|
-2-4-5-6-4-------3-2-----777--------------------2-4-5-6-4-------3-|
-0-2-3-6-2-3-333-3-0-333-----3-3355665566663366-0-2-3-6-2-3-333-3-|
             ...     ...                                    ...

Riff 6a cont.
-----------------------------------|
-----------------------------------|
-----------------------------------|
-----------------------------------| gtr 1
-77776666777766667777666644443333--|
-----------------------------------|

-----------------------------------|
-----------------------------------|
-----------------------------------|
-----------------------------------| gtr 2
-----------------------------------|
---------777766667777666644443333--|

Riff 6b
-------------------------------------------------------------------|
-------------------------------------------------------------------|
-------------------------------------------------------------------|
-------8---------5------------------------------------8---------5--|
-2-4-5-6-4-------3-2-----77--8------------------2-4-5-6-4-------3--|
-0-2-3-6-2-3-333-3-0-1-1---3-6-3355665566663366-0-2-3-6-2-3-333-3--|
             ...     . . ...                                ...

Riff 6b cont.
-----------------------------------|
-----------------------------------|
-----------------------------------|
-----------------------------------| gtr 1
-77776666777766667777666644443333--|
-----------------------------------|

-----------------------------------|
-----------------------------------|
-----------------------------------|
-----------------------------------| gtr 2
-----------------------------------|
---------777766667777666644443333--|

Riff 7 (play 4 times)
---------------------------------------------------------------|
---------------------------------------------------------------|
---------------------------------------------------------------|
---------------------------------------------------------------|
-3-3-4-3-4-3----4-5-4-5--------4-3-4-3---------2-1-2-1---2-----|
-1-1/2\1/2\1000-2/3\2/3000-000-2\1/2\1-0-0-0-0-2\1/2\1-0-2-0---|
            ...        ... ...         . . . .         .   .

Fill 2
------------|
------------|
------------|
------------|
-2----------|
-0----------|

Riff 8a
---------------------------------------|
---------------------------------------|
---------------------------------------|
-------------3-------------5-----------| gtr 2
-------------1-------------3-----------|
-000022223333--222233332222--00002222--|
                   ........

Drum solo

Riff 8b
-------------------------------------------------------------|
-------------------------------------------------------------|
-------------------------------------------------------------|
-------------3-------------5---------------------------------|
-------------1-------------3---------77778-------------------|
-000022223333--222233332222--00002222----6-3322335566663366--|
                   ........          ....

Riff 8c
-----------------------------------------------------------------|
-----------------------------------------------------------------|
-----------------------------------------------------------------|
-------------3-------------5-------------------------------------|
-------------1-------------3--77776666777766667777666644443333---|
-000022223333--222233332222--------------------------------------|
                   ........

-----------------------------------------------------------------|
-----------------------------------------------------------------|
-----------------------------------------------------------------|
-------------3-------------5-------------------------------------|
-------------1-------------3-------------------------------------|
-000022223333--222233332222-----------777766667777666644443333---|
                   ........

Drums

Riff 4 x 1 including solo, figure out the parts yourself again
Riff 5 x 1
Riff 6a x 1
Riff 6b x 1
Riff 7 x 1
End
Добавлено: 03.07.2012
Другие материалы по этой песне:

Страница создана 20.05.2012
http://primanota.ru/decapitated/eternity-too-chords.htm
Привет, Гость.
Предлагаем пройти революционный курс по гитаре.
Подарок от PrimaNota.Ru, забирай!