PrimaNota.ru - самый крупный в мире бесплатный архив песенных текстов, аккордов, табулатур и нот


Decapitated - Day 69 - текст песни, таба, видео

Регистрация Запомнить меня
Войти через:  Facebook Google Twitter Vk Yandex Mail.ru

Decapitated - Day 69 - текст песни, таба, видео

Печатать
Просмотров: 190
Band:  Decapitated
Album: Organic Hallucinosis
Song:  Day 69

Transcribed By: no941726


Symbols:

/  - slide
~  - vibrato
b  - bend
r  - release


		|-----|			|-------|
		|-----|			|-------|
		|-----| 			|-------|
		|--x--| 			|---2---|
		|--x--|			|---2---|	
NOTE:	      |--x--|  means muted  	|---0---| and was mentioned where necessary.

      
Riff1 - Intro
|---------------------------------------|-----------------------------------|
|---------------------------------------|-----------------------------------|
|---------------------------------------|-----------------------------------|
|--------------8-----------------8------|--88888--55555--333353-------------|
|--------------6-----------------6------|--88888--55555--333353-------------|
|--0000000000006-----0000000000006------|--66666--33333--111131-------------|

|---------------------------------------|-----------------------------------|
|---------------------------------------|-----------------------------------|
|---------------------------------------|-----------------------------------|
|--------------8-----------------9------|--8-11-12-10~----------------------|
|--------------6-----------------7------|--6--9-10--8~----------------------|
|--0000000000006-----0000000000007------|-----------------------------------|

|---------------------------------------|-----------------------------------|
|---------------------------------------|-----------------------------------|
|---------------------------------------|-----------------------------------|
|---------------------------------------|--88888--55555--333353-------------|
|--------------5b6r5-------------5b6r5--|--88888--55555--333353-------------|
|--000000000000------000000000000-------|--66666--33333--111131-------------|

|---------------------------------------|-----------------------------------|
|---------------------------------------|-----------------------------------|
|---------------------------------------|-----------------------------------|
|--------------------------------2------|--8-11-12-10~----------------------|
|--------------5b6r5-------------2------|--6--9-10--8~----------------------|
|--000000000000------0000000000000------|-----------------------------------|


Riff2 - 1st verse				              Three times|4th time
|------------------------------------------------------------|-------------|
|------------------------------------------------------------|-------------|
|------------------------------------------------------------|-||-------44-|
|-33-x-2-x-2-x-22-x-22-x-22-x-33-x-2-x-4/3/2-x-5/6/5-5/6-5/6-|-||-5/6/5-44-|
|-33-x-2-x-2-x-22-x-22-x-22-x-33-x-2-x-4/3/2-x---------------|----------22-|
|-11-x-0-x-0-x-00-x-00-x-00-x-11-x-0-x-2/1/0-x-3/4/3-3/4-3/4-|----3/5/3----|


Riff3
|-----------------------------------------------------------|
|-----------------------------------------------------------|
|------------------------------4---3------------------------|
|-33-x-2-x-4/3/2-2-----6---5---4---3---6---5---5-5/6-5/6----|
|-33-x-2-x-4/3/2-2-----6---5---2---1---6---5----------------|
|-11-x-0-x-2/1/0-0-000-4-0-3-0---0---0-4-0-3-0-3-3/4-3/4-00-|

|----------------------------------------------------|
|----------------------------------------------------|
|------------------------------4---3----6------------|
|-33-x-2-x-4/3/2-2-----6---5---4---3----6------------|
|-33-x-2-x-4/3/2-2-----6---5---2---1----4------------|
|-11-x-0-x-2/1/0-0-000-4-0-3-0---0---00---00-3~-0-3~-|


Riff4 - Chorus
|----------------------------------------------------------|
|----------------------------------------------------------|
|----------------------------------------------------------|
|-------4-------5-------4-----5-----4----------------------|
|-----------3-------3-----3-----3-----3--------------------|
|-2-2-2---2---2---2---2-----2-----2-----2-0000000033333333-|

				 Three times|4th time
|---------------------------|-----------------------|
|---------------------------|-----------------------|
|----||---------------------|-----------------------|
|----||---------------------|-------4-------5-------|
|------------------33333333-|-----------3-------3---|
|----------00000000---------|-2-2-2---2---2---2---2-|


Riff5 - Solo					        Three times|4th time
|------------------------------------------------------------|-------------|
|------------------------------------------------------------|-------------|
|------------------------------------------------------------|-||-------44-|
|-33-x-2-x-2-x-22-x-22-x-22-x-33-x-2-x-4/3/2-x-5/6/5-5/6-5/6-|-||-5/6/5-44-|
|-33-x-2-x-2-x-22-x-22-x-22-x-33-x-2-x-4/3/2-x---------------|----------22-|
|-11-x-0-x-0-x-00-x-00-x-00-x-11-x-0-x-2/1/0-x-3/4/3-3/4-3/4-|----3/5/3----|


Riff6
|-----------------------------------------------------------|
|-----------------------------------------------------------|
|------------------------------4---3------------------------|
|-33-x-2-x-4/3/2-2-----6---5---4---3---6---5---5-5/6-5/6----|
|-33-x-2-x-4/3/2-2-----6---5---2---1---6---5----------------|
|-11-x-0-x-2/1/0-0-000-4-0-3-0---0---0-4-0-3-0-3-3/4-3/4-00-|

|----------------------------------------------------|
|----------------------------------------------------|
|------------------------------4---3----6------------|
|-33-x-2-x-4/3/2-2-----6---5---4---3----6------------|
|-33-x-2-x-4/3/2-2-----6---5---2---1----4------------|
|-11-x-0-x-2/1/0-0-000-4-0-3-0---0---00---00-3~-0-3~-|


Riff7 - Chorus								    
|----------------------------------------------------------|
|----------------------------------------------------------|
|----------------------------------------------------------|
|-------4-------5-------4-----5-----4----------------------|
|-----------3-------3-----3-----3-----3--------------------|
|-2-2-2---2---2---2---2-----2-----2-----2-0000000033333333-|

|---------------------|-------------------------------------------|
|---------------------|-------------------------------------------|
|-||------------------|-------------------------------------------|
|-||------------------|-------4-------5-------4-----5-----4-------|
|------------33333333-|-----------3-------3-----3-----3-----3-----|
|----00000000---------|-2-2-2---2---2---2---2-----2-----2-----2-0-|


Drum Solo


Riff8
|---------------------------------------|-----------------------------------|
|---------------------------------------|-----------------------------------|
|---------------------------------------|-----------------------------------|
|---------------------------------------|--88888--55555--333353-------------|
|--------------5b6r5-------------5b6r5--|--88888--55555--333353-------------|
|--000000000000------000000000000-------|--66666--33333--111131-------------|

|---------------------------------------|-----------------------------------|
|---------------------------------------|-----------------------------------|
|---------------------------------------|-----------------------------------|
|--------------------------------2------|--8-11-12-10~----------------------|
|--------------5b6r5-------------2------|--6--9-10--8~----------------------|
|--000000000000------0000000000000------|-----------------------------------|


Riff9 - 2nd verse				              Three times|4th time
|------------------------------------------------------------|----------|
|------------------------------------------------------------|----------|
|------------------------------------------------------------|-||-------|
|-33-x-2-x-2-x-22-x-22-x-22-x-33-x-2-x-4/3/2-x-5/6/5-5/6-5/6-|-||-5/6/5-|
|-33-x-2-x-2-x-22-x-22-x-22-x-33-x-2-x-4/3/2-x---------------|----------|
|-11-x-0-x-0-x-00-x-00-x-00-x-11-x-0-x-2/1/0-x-3/4/3-3/4-3/4-|----3/5/3-|


Enjoy.
Добавлено: 02.03.2012
Другие материалы по этой песне:

Страница создана 02.03.2012
http://primanota.ru/decapitated/day-69-chords.htm
Привет, Гость.
Предлагаем пройти революционный курс по гитаре.
Подарок от PrimaNota.Ru, забирай!