PrimaNota.ru - самый крупный в мире бесплатный архив песенных текстов, аккордов, табулатур и нот


Decapitated - Invisible Control - текст песни, таба, видео

Регистрация Запомнить меня
Войти через:  Facebook Google Twitter Vk Yandex Mail.ru

Decapitated - Invisible Control - текст песни, таба, видео

Печатать
Просмотров: 125
.  - palm mute           /  - slide up to
\  - slide down to       ~  - vibrato
h  - hammer on           b  - Bend
p  - pull off            Suffixes for bend
t  - tap                 f  - full bend    h - half bend
ph - pinched harmonic    q  - quarter bend t - tap bend
*  - see comment         ^  - Hold bend    r release bend
x  - Stuccatto           ~  - vibrato bend
,  - slight palm mute    () - ghost note, sustained note
"  - tremolo note        <> - Trill

C# F# B E G C#

Riff 1 0.00
|--------------------------------------------------|
|--------------------------------------------------|
|-3-3-3-3-3-3-3-3-3-3------1-1-1-1-1-1-1-1-1-1-----|
|-2-2-2-2-2-2-2-2-2-2------2-2-2-2-2-2-2-2-2-2-----|
|-1-1-1-1-1-1-1-1-1-1--..--2-2-2-2-2-2-2-2-2-2--..-|
|-0-0-0-0-0-0-0-0-0-0--00--0-0-0-0-0-0-0-0-0-0--00-|


Riff 2 0.16
|--------------------------------------------------|
|-2-2-2-2-2-2-2-2-2-2------0-0-0-0-0-0-0-0-0-0-----|
|-3-3-3-3-3-3-3-3-3-3------1-1-1-1-1-1-1-1-1-1-----|
|-2-2-2-2-2-2-2-2-2-2------2-2-2-2-2-2-2-2-2-2-----|
|-1-1-1-1-1-1-1-1-1-1--..--2-2-2-2-2-2-2-2-2-2--..-|
|-0-0-0-0-0-0-0-0-0-0--00--0-0-0-0-0-0-0-0-0-0--00-|


Riff 3 0.34
|-------------------------|-------------------------|
|-------------------------|-------------------------|
|-------------------------|-------------------------|
|-----------3-----------3-|-----------3-----------3-|
|-...-6\4-.-3-...-6\4-.-3-|-...-6\4-.-3-...-6\4-.-3-|
|-000-6\4-0-1-000-6\4-0-1-|-000-6\4-0-1-000-6\4-0-1-|


Fill 1 0.41
|---------------------|
|---------------------|
|---------------6-----|
|-3-2-1--3-2-1--6-4-3-|
|-3-2-1--3-2-1--4-4-3-|
|-----------------2-1-|


REPEAT RIFF 3 WITH BLASTBEATS


Fill 2 0.50 - EXTREME HEAVY BENDING AND PALM MUTING ON THE 6 5 2 NOTES.
|-----------------------|
|-----------------------|
|-----------------------|
|-----------------------|
|-...-6\4-.-...-...-...-|
|-000-6\4-0-666-555-222-|


REPEAT RIFF 3 WITH BLASTBEATS AND FINISH WITH FILL 1


Riff 4 1.00 [VERSE RIFF] First time
|-----------------------------------------------|
|-----------------------------------------------|
|-----------------------------------------------|
|---------2---------------------------------2\1-|
|-...-...-2-...-...-...-...-...-...-...-...-2\1-|
|-111-444-0-111-444-000-111-444-000-111-444-----|

Second time
|---------------------------------------------------|
|---------------------------------------------------|
|---------------------------------------------------|
|---------------------------------------------------|
|-...-...-...-...-...-...-...-...-...-...-...-7-.-6-|
|-111-444-000-111-444-000-111-444-000-111-444-7-0-6-|

Third time
|----------------------------------------------------|
|----------------------------------------------------|
|----------------------------------------------------|
|---------2------------------------------------------|
|-...-...-2--...-...-...-...-...-...-...-...-7-.-7\6-|
|-111-444-0--111-444-000-111-444-000-111-444-7-0-7\6-|

Fourth Time
|---------------------------------------------------|
|---------------------------------------------------|
|---------------------------------------------------|
|---------------------------------------------------|
|-...-...-...-...-...-...-...-...-...-...-...-7-.-6-|
|-111-444-000-111-444-000-111-444-000-111-444-7-0-6-|


Riff 5 1.34 [Pre Chorus](^ = Heavy bending)           Fill 3 before chorus
|----------------------------------------------------|-----------------------|
|----------------------------------------------------|-----------------------|
|----------^-----------^-----------^^^----------^^^--|-------------5-5---4-4-|
|-4----4-4-4--4----4-4-4--3----3-3-321-3----3-3-321--|-3-----3-3-3-5-5---4-4-|
|-4-..-4-4----4-..-4-4----3-..-3-3-----3-..-3-3------|-3-.-.-3-3-3-3-3-.-2-2-|
|-2-22-2-2----2-22-2-2----1-11-1-1-----1-11-1-1------|-1-1-1-1-1-1-----1-----|


Chorus Riff 1.51 (* = Pinch Harmonic) (^ = Heavy bend)
|------------------------------|------------------|---------------------------|
|------------------------------|------------------|---------------------------|
|------------------------------|------------------|---------------------------|
|------------------------------|------------------|---------------------------|
|8-..-2-.-3-.-5-.-6-5-.-5-6-..-|-8-..-2-.-3-.-4-*-|-8-..-2-.-3-.-5-.-6-5-.-6-5|
|6-00-0-0-1-0-3-0-4-3-0-3-4-00-|-6-00-0-0-1-0-3-3-|-6-00-0-0-1-0-3-0-4-3-0-4-3|

(^ = Heavy bend) (p = Pulloff)
|----------------------|
|----------------------|
|------^--------^------|
|------5--------5----3-|
|1p0------1p0-----..-3-|
|----2--------1---11-1-|

ALL RIFFS ARE HERE AND I AM SURE THIS WHOLE TAB IS ABOUT 97% ACCURATE!!!
I HAVE BEEN OVER AND OVER AND PLAYED ALONG WITH EARPHONES IN SO
EVERY NOTE SHOULD BE PRETTY WELL SPOT ON. GOOD LUCK! DID NOT TAB SOLO,
BUT SEEMS PRETTY SIMPLE. IF ANYTHING IS MISSING OR YOU HAVE ANYTHING
TO CONTRIBUTE EMAIL ME!!!

SONG STRUCTURE:

INTRO:
Riff 1
Riff 2

PRE TO VERSE:
Riff 3
FILL 1
RIFF 3
FILL 2
RIFF 3
FILL 1

VERSE:
VERSE RIFF 1
VERSE RIFF 2
VERSE RIFF 3
VERSE RIFF 4
VERSE RIFF 1
VERSE RIFF 2
VERSE RIFF 3
VERSE RIFF 4

TO CHORUS:
RIFF 5
FILL 3
CHORUS

PRE TO VERSE:
RIFF 3
FILL 2
RIFF 3
FILL 1

VERSE:
VERSE RIFF 1
VERSE RIFF 2
VERSE RIFF 3
VERSE RIFF 4
VERSE RIFF 1
VERSE RIFF 2
VERSE RIFF 3
VERSE RIFF 4

TO CHORUS:
RIFF 5
FILL 3
CHORUS

BRIDGE WITH SOLO:
RIFF 5
VERSE RIFF 1
VERSE RIFF 2
VERSE RIFF 3
VERSE RIFF 4
VERSE RIFF 1
VERSE RIFF 2
VERSE RIFF 3
VERSE RIFF 4
RIFF 3
FILL 1

END

Please note this is not my tab, credits to: 
Transcribed By: (Milo Merritt)
Email:          (myles_merritt@yahoo.com)
Добавлено: 30.06.2012
Другие материалы по этой песне:
  • Аккорды и текст

Страница создана 30.06.2012
http://primanota.ru/decapitated/invisible-control-chords.htm
Привет, Гость.
Предлагаем пройти революционный курс по гитаре.
Подарок от PrimaNota.Ru, забирай!