PrimaNota.ru - самый крупный в мире бесплатный архив песенных текстов, аккордов, табулатур и нот


Decapitated - Winds Of Creation - текст песни, таба, видео

Регистрация Запомнить меня
Войти через:  Facebook Google Twitter Vk Yandex Mail.ru

Decapitated - Winds Of Creation - текст песни, таба, видео

Печатать
Просмотров: 143
DECAPITATED - WINDS OF CREATION
tab-mentaladvisory
i broke evething down into riffs...listen to song for when to play


Tuned to D (DGCFAD)



Riff 1
|----------------------------------------|
|----------------------------------------|
|----------------------------------------|Gtr I
|------------------5-----4---------------|
|-333333333-2-2------6-----5-------------|
|-111111111-0-0--------7-----6-----------|
| .........          . .   . .           |
|----------------------------------------|
|----------------------------------------|
|----------------------------------------|Gtr II
|----------------------------------------|
|-333333333-2-2--------------------------|
|-111111111-0-0--------------------------|
  .........

|----------------------------------------|
|----------------------------------------|
|----------------------------------------|Gtr I
|-------6-7-6-3-3-3-3--------------------|
|-55555-4-5-4-1-1-1-1--------------------|
|-------------1-1-1-1--------------------|
|             . . .                      |
|----------------------------------------|
|----------------------------------------|
|----------------------------------------|Gtr II
|-------------3-3-3-3--------------------|
|-------------1-1-1-1--------------------|
|-------------1-1-1-1--------------------|
              . . .

|----------------------------------------|
|----------------------------------------|
|----------------------------------------|Gtr I
|------------------5-----4---------------|
|-333333333-2-2------6-----5-------------|
|-111111111-0-0--------7-----6-----------|
| .........          . .   . .           |
|----------------------------------------|
|----------------------------------------|
|----------------------------------------|Gtr II
|----------------------------------------|
|-333333333-2-2--------------------------|
|-111111111-0-0--------------------------|
  .........


|----------------------------------------|
|----------------------------------------|
|----------------------------------------|Gtr I
|----------------------------------------|
|-55555-----2-3-2------------------------|
|-------4-5-------5-4--------------------|
|                                        |
|----------------------------------------|
|----------------------------------------|
|----------------------------------------|Gtr II
|----------------------------------------|
|----------------------------------------|
|----------------------------------------|


|----------------------------------------|
|----------------------------------------|
|----------------------------------------|Gtr I
|------------------5-----4---------------|
|-333333333-2-2------6-----5-------------|
|-111111111-0-0--------7-----6-----------|
| .........          . .   . .           |
|----------------------------------------|
|----------------------------------------|
|----------------------------------------|Gtr II
|----------------------------------------|
|-333333333-2-2--------------------------|
|-111111111-0-0--------------------------|
  .........


|----------------------------------------|
|----------------------------------------|
|----------------------------------------|Gtr I
|-------6-7-6-------3---4----------------|
|-55555-4-5-4-1-1-1-1---2----------------|
|-------------1-1-1-1---2----------------|
|             . . .                      |
|----------------------------------------|
|----------------------------------------|
|----------------------------------------|Gtr II
|-------------------3---4----------------|
|-------------1-1-1-1---2----------------|
|----------------------------------------|
              . . .

|----------------------------------------|
|----------------------------------------|
|----------------------------------------|Gtr I
|----------------------------------------|
|-333333333-2-2------4-----3-------------|
|-111111111-0-0--------6-5---5-4---------|
| .........            . .   . .         |
|----------------------------------------|
|----------------------------------------|
|----------------------------------------|Gtr II
|----------------------------------------|
|----------------------------------------|
|----------------------------------------|


|----------------------------------------|
|----------------------------------------|
|----------------------------------------|
|-3---3---3---3--------------------------|
|-3---3---3---3--------------------------|
|-1---1---1---1--------------------------|
|                                        |
|----------------------------------------|
|----------------------------------------|
|----------------------------------------|
|-3---3---3---3--------------------------|
|-3---3---3---3--------------------------|
|-1---1---1---1--------------------------|


Riff 2
|----------------------------------------|
|----------------------------------------|
|----------------------------------------|
|-------------5-----4--------------------|
|---------------6-----5------------------|
|-1"----0"--------7-----6----------------|


|----------------------------------------|
|----------------------------------------|
|----------------------------------------|
|-------6/7\6----------------------------|
|-5"----4/5\4-1"-------------------------|
|----------------------------------------|


|----------------------------------------|
|----------------------------------------|
|----------------------------------------|
|----------------------------------------|
|----------------------------------------|
|-1"----0"-------------------------------|


|----------------------------------------|
|----------------------------------------|
|----------------------------------------|
|-----------2-3-3------------------------|
|-5"----4-5-2-3-2-5-4-5-4----------------|
|-------4-5-------5-4-5-4----------------|


|----------------------------------------|
|----------------------------------------|
|----------------------------------------|
|-------------5-----4--------------------|
|---------------6-----5------------------|
|-1"----0"--------7-----6----------------|


|----------------------------------------|
|----------------------------------------|
|----------------------------------------|
|-------6/7\6-6-----3---4----------------|
|-5"----4/5\4-4-1-1-1---2----------------|
|---------------1-1-1---2----------------|
                . .

|----------------------------------------|
|----------------------------------------|
|----------------------------------------|
|----------------------------------------|
|-------------4-----3--------------------|
|-1"----0"------6-5---5-4----------------|
                . .   . .

|----------------------------------------|
|----------------------------------------|
|----------------------------------------|
|----------------------------------------|
|---3-------2---2-------1----------------|
|-2---4-3-2---1---3-2-1------------------|

|----------------------------------------|
|----------------------------------------|
|----------------------------------------|
|-------------5-----4--------------------|
|---------------6-----5------------------|
|-1"----0"--------7-----6----------------|


|----------------------------------------|
|----------------------------------------|
|----------------------------------------|
|-------6/7\6----------------------------|
|-5"----4/5\4-1"-------------------------|
|----------------------------------------|


|----------------------------------------|
|----------------------------------------|
|----------------------------------------|
|----------------------------------------|
|----------------------------------------|
|-1"----0"-------------------------------|


|----------------------------------------|
|----------------------------------------|
|----------------------------------------|
|-----------2-3-3------------------------|
|-5"----4-5-2-3-2-5-4-5-4----------------|
|-------4-5-------5-4-5-4----------------|


|----------------------------------------|
|----------------------------------------|
|----------------------------------------|
|-------------5-----4--------------------|
|---------------6-----5------------------|
|-1"----0"--------7-----6----------------|


|----------------------------------------|
|----------------------------------------|
|----------------------------------------|
|-------6/7\6-6-----3---4----------------|
|-5"----4/5\4-4-1-1-1---2----------------|
|---------------1-1-1---2----------------|
                . .

|----------------------------------------|
|----------------------------------------|
|----------------------------------------|
|----------------------------------------|
|-------------4-----3--------------------|
|-1"----0"------6-5---5-4----------------|
                . .   . .


|----------------------------------------|
|----------------------------------------|
|----------------------------------------|
|-3---3---3---3----5---6-5------3---2----|
|-3---3---3---3----5---6-5------3---2----|
|-1---1---1---1----3---4-3------1---0----|


|----------------------------------------|
|----------------------------------------|
|----------------------------------------|
|-3------5-6-5---------------------------|
|-3------5-6-5---------------------------|
|-1------3-4-3---------------------------|


|----------------------------------------|
|----------------------------------------|
|----------------------------------------|
|----------------------------------------|
|-------------3-----------3---3----------|
|-00000000000-1---0000000-1-0-1----------|
   
Riff 3
|----------------------------------------|
|----------------------------------------|
|----------------------------------------|
|----------------------------------------|
|-------3-------3------------------------|
|-00000-1-00000-1-00000------------------|

|----------------------------------------|
|----------------------------------------|
|----------------------------------------|
|-2-------1-------3-0-2------------------|
|---3-3-3---2-2-2-------3-5-2-3-2--------|
|----------------------------------------|


|----------------------------------------|
|----------------------------------------|
|----------------------------------------|
|----------------------------------------|
|-2-------1---------2-----------1--------|
|---3-3-3---2-2-2-1---3-2-1-1-1----------|


|----------------------------------------|
|--------------------------------8-10-12-|
|-8h9p8----8--------------8-9-11---------|
|-------10---10-9----9-10----------------|
|-----------------11---------------------|
|----------------------------------------|
|                                        |
|----------------------------------------|
|----------------------------------------|
|---------------------------------7-9-11-|
|-8-9-8----8--------------8-9-11---------|
|-------10---10-9----9-10----------------|
|-----------------12---------------------|


|----------------------------------------|
|----------------------------------------|
|----------------------------------------|
|-------------------4--------------------|
|-2-------1-------3-2-5-4----------------|
|---3-3-3---2-2-2-1---3-2----------------|


|----------------------------------------|
|----------------------------------------|
|----------------------------------------|
|----------------------------------------|
|-1-------1------------------------------|
|---3-2-1--------------------------------|


|----------------------------------------|
|----------------------------------------|
|----------------------------------------|
|----------------------------------------|
|-2-3----------3-------------------------|
|-0-1----11111-1-------------------------|
         .....

|----------------------------------------|
|----------------------------------------|
|----------------------------------------|
|----------------------------------------|
|---3-----1-4----------------------------|
|-1---4-3--------------------------------|


Riff 4
|----------------------------------------|
|----------------------------------------|
|----------------------------------------|
|----------------------------------------|
|----------------------------------------|
|-0"---1"---3"---4"-----4-3-4------------|


|----------------------------------------|
|----------------------------------------|
|----------------------------------------|
|----------------------------------------|
|-2"------3-2-3---5"---6"-----------5"---|
|----------------------------3"----------|


|----------------------------------------|
|----------------------------------------|
|----------------------------------------|
|----------------------------------------|
|-5-4-5-1"----3-----1-4------------------|
|----------1----4-3----------------------|


|----------------------------------------|
|----------------------------------------|
|----------------------------------------|
|----------------------------------------|
|----------------------------------------|
|-0"---1"---3"---4"-----4-3-4------------|


|----------------------------------------|
|----------------------------------------|
|----------------------------------------|
|----------------------------------------|
|-2"------3-2-3---5"---6"-----------5"---|
|----------------------------3"----------|


|----------------------------------------|
|----------------------------------------|
|----------------------------------------|
|----------------3------------3----------|
|------5"--1-1-1-1---11111111-1----------|
|-3"-------------------------------------|
           . . .     ........


Riff 5
|----------------------------------------|
|----------------------------------------|
|----------------------------------------|
|----------------------------------------|
|-2----------------6---6\5/6--2-2-2-2----|
|-0----1"----3"----4---4\3/4--0-0-0-0----|
                              . . . .

|----------------------------------------|
|----------------------------------------|
|----------------------------------------|
|----------------------------------------|
|-------------------6-6\5/6-----8-----8--|
|-0"---1"----3"-----4-4\3/4-000-6-000-6--|
                            ...   ...

|----------------------------------------|
|----------------------------------------|
|----------------------------------------|
|----------------------------------------|
|-2----------------6---6\5/6--2-2-2-2----|
|-0----1"----3"----4---4\3/4--0-0-0-0----|
                              . . . .


|---------------------------------------------|
|---------------------------------------------|
|---------------------------------------------|
|----------------------------8----------------|
|----------------6-6\5/6-------7---8-----7ah--|
|-0"---1"---3"---4-4\3/4-000-----6---7-6------|
                            



Fill
|----------------------------------------|
|----------------------------------------|
|----------------------------------------|
|----------------------------------------|
|-222-3------3-2-3-2---3----2-3----------|
|-000-1------1-0-1-0---1----0-1----------|
  ...

Riff 6
|----------------------------------------|
|----------------------------------------|
|----------------------------------------|
|----------------------------------------|
|-------1-----------2-----------1--------|
|-1-2-0---2-3-1-0-1---1-1-2-3-2----------|


|----------------------------------------|
|----------------------------------------|
|----------------------------------------|
|----------------------------------------|
|----------------------------------------|
|-0-0-0-0---000--000---------------------|


Riff 7
|----------------------------------------|
|----------------------------------------|
|----------------------------------------|
|----------------------------------------|
|----------------------------------------|
|-0"---6-4-3-2"---2-3-1"-----------------|


|----------------------------------------|
|----------------------------------------|
|----------------------------------------|
|----------------------------------------|
|--------------4/6-----------------------|
|-0"---2-0-3-0-3/4---3-4-3-0-------------|


|----------------------------------------|
|----------------------------------------|
|----------------------------------------|
|----------------------------------------|
|----------------------------------------|
|-0"---6-4-3-2"---2-3-1"-----------------|


|----------------------------------------|
|----------------------------------------|
|----------------------------------------|
|-------------------------------5ah------|
|-----------------1-------4---4----------|
|-0-0-0-0-2---3-----3-3-----6------------|


|----------------------------------------|
|----------------------------------------|
|----------------------------------------|
|----------------------------------------|
|----------------------------------------|
|-0"---6-4-3-2"---2-3-1"-----------------|




|----------------------------------------|
|----------------------------------------|
|----------------------------------------|
|-----------------5-5-5-5----8-8-8-8-----|
|---------4---5--------------------------|
|-0-0-0-0-2---3---3-3-3-3----6-6-6-6-----|


Riff 8
|----------------------------------------|
|----------------------------------------|
|----------------------------------------|
|----------------------------------------|
|-----------3-3-2-3-3-2------------------|
|-0"---1"---1-1-0-1-1-0------------------|


|----------------------------------------|
|----------------------------------------|
|----------------------------------------|
|----------------------------------------|
|----------------------------------------|
|-0-1-3-4----0-1-3-4---------------------|



|----------------------------------------|
|-10-10-----9--9-------------------------|
|-8--8------7--7-------------------------|
|----------------------------------------|
|-6--6------5--5-------------------------|
|----------------------------------------|



|----------------------------------------|
|----------------------------------------|
|----------------------------------------|
|----------------------------------------|
|-7ah----7ah--------7ah------------------|
|-------------2-1-0-5ah------------------|


Riff 9
|----------------------------------------|
|----------------------------------------|
|----------------------------------------|
|-----2----------------------------------|
|-2-----4-1"---1-4---2-----1h2-----------|
|-0------------------0-1-1-------000-000-|


|----------------------------------------|
|----------------------------------------|
|----------------------------------------|
|-----------------------------------2----|
|-------------1h2---------2-1-4-1-4------|
|-0"--1-0-2-1-----2-1-4-3----------------|



|--------------------------------------------|
|--------------------------------------------|
|--------------------------------------------|
|----2---------------------------------------|
|------4-1"---1-4--------4-3-4-5-4-3-4-5-4-3-|
|-0"--------------3"-2"--2-1-2-3-2-1-2-3-2-1-|
Добавлено: 12.03.2012
Другие материалы по этой песне:

Страница создана 12.03.2012
http://primanota.ru/decapitated/winds-of-creation-chords.htm
Привет, Гость.
Предлагаем пройти революционный курс по гитаре.
Подарок от PrimaNota.Ru, забирай!