PrimaNota.ru - самый крупный в мире бесплатный архив песенных текстов, аккордов, табулатур и нот


Decapitated - Visual Dilusion - таба, видео

Регистрация Запомнить меня
Войти через:  Facebook Google Twitter Vk Yandex Mail.ru

Decapitated - Visual Dilusion - таба, видео

Печатать
Просмотров: 203
Уроки эстрадного вокала в Санкт-Петербурге
Band: Decapitated
Album: Organic Hallucinosis
Song: Visual Delusion
Record Label: Earache
Tuning: C# F# B E G# C#
--------------------------------|
--------------------------------|
--------------------------------|
--------------------------------|
--------------------------------|
-slide-down\\\\\\\\\\\\\\\\\\\--

----------------------------------|
----------------------------------|
-----3/4-----3/4-----3/4-----3/4--|
-----2/3-----2/3-----2/3-----2/3--|
-2-1-1/2-2-1-1/2-2-1-1/2-2-1-1/2--|
-0-0-----0-0-----0-0-----0-0------|X4
 pm.     . .     . .     . .

----------------------------------------------------------|
----------------------------------------------------------|
-----3/4-----4/5-----4/6-----5/6-----6/7-----7/8-----7/8--|
-----2/3-----3/4-----3/5-----4/5-----5/6-----6/7-----6/7--|
-2-1-1/2-2-1-2/3-2-1-2/4-2-1-3/4-2-1-4/5-2-1-4/6-2-1-5/6--|
-0-0-----0-0-----0-0-----0-0-----0-0-----0-0-----0-0------|
 pm.     . .     . .     . .     . .     . .     . .

--------------------------------------------------------------------|
--------------------------------------------------------------------|
-----7/9-----7/9-----7/9-----7/9-----7/9-----7/9-----8/10-----8/10--|
-----6/8-----6/8-----6/8-----6/8-----6/8-----6/8-----7/9------7/9---|
-2-1-5/7-2-1-5/7-2-1-5/7-2-1-5/7-2-1-5/7-2-1-5/7-2-1-6/8--2-1-6/8---|
-0-0-----0-0-----0-0-----0-0-----0-0-----0-0-----0-0------0-0-------|
 pm.     . .     . .     . .     . .     . .     . .      . .

--------------------------------------------------------|
--------------------------------------------------------|
-----9/11-----9/11-----9/11-----9/11-----9/11-----9/11--|
-----8/10-----8/10-----8/10-----8/10-----8/10-----8/10--|
-2-1-7/9--2-1-7/9------7/9------7/9------7/9------7/9---|
-0-0------0-0-------------------------------------------|

------------------------------------------------------------------|
------------------------------------------------------------------|
------------------------------------------------------------------|
---------------5---------------4---------------5---------------5--|
-----------3---------------3---------------3---------------3------|
-2-3-2-5-2---2---2-3-2-5-2---2---2-3-2-5-2---2---2-3-2-5-2---2----|

----------------------------------|
----------------------------------|
----------------------------------|
---------------4-------3-3-3-3-3--|
-----------3-----------3-3-3-3-3--|
-2-3-2-5-2---2---2-3-2-1-1-1-1-1--|


------------------------------------------------------------------|
------------------------------------------------------------------|
------------------------------------------------------------------|
---------------5---------------4---------------5---------------5--|
-----------3---------------3---------------3---------------3------|
-2-3-2-5-2---2---2-3-2-5-2---2---2-3-2-5-2---2---2-3-2-5-2---2----|

----------------------------------|
----------------------------------|
----------------------------------|
---------------4-------3-3-3-3-3--|
-----------3-----------3-3-3-3-3--|
-2-3-2-5-2---2---2-3-2-1-1-1-1-1--|

---------------------------------|
---------------------------------|
------------------------7-7-7-7--|
------------------------6-6-6-6--|
-3332-4443-2443-333-222-5-5-5-5--|
-1110-2221-0221-111-000----------|
 pm.. .... .... ... ...

------------------------------------------------------------------|
------------------------------------------------------------------|
------------------------------------------------------------------|
---------------5---------------4---------------5---------------5--|
-----------3---------------3---------------3---------------3------|
-2-3-2-5-2---2---2-3-2-5-2---2---2-3-2-5-2---2---2-3-2-5-2---2----|

----------------------------------|
----------------------------------|
----------------------------------|
---------------4-------3-3-3-3-3--|
-----------3-----------3-3-3-3-3--|
-2-3-2-5-2---2---2-3-2-1-1-1-1-1--|


------------------------------------------------------------------|
------------------------------------------------------------------|
------------------------------------------------------------------|
---------------5---------------4---------------5---------------5--|
-----------3---------------3---------------3---------------3------|
-2-3-2-5-2---2---2-3-2-5-2---2---2-3-2-5-2---2---2-3-2-5-2---2----|

----------------------------------|
----------------------------------|
----------------------------------|
---------------4-------3-3-3-3-3--|
-----------3-----------3-3-3-3-3--|
-2-3-2-5-2---2---2-3-2-1-1-1-1-1--|


--------------------------------------------------------------|
--------------------------------------------------------------|
--------------------------------------------------------------|
-----------5---------------4---------------5---------------5--|
-------3---------------3---------------3---------------3------|
-23252---2---2-3-2-5-2---2---2-3-2-5-2---2---2-3-2-5-2---2----|
 pm...

----------------------------------|
----------------------------------|
----------------------------------|
---------------4-------3-3-3-3-3--|
-----------3-----------3-3-3-3-3--|
-2-3-2-5-2---2---2-3-2-1-1-1-1-1--|


------------------------------------------------------------------|
------------------------------------------------------------------|
------------------------------------------------------------------|
---------------5---------------4---------------5---------------5--|
-----------3---------------3---------------3---------------3------|
-2-3-2-5-2---2---2-3-2-5-2---2---2-3-2-5-2---2---2-3-2-5-2---2----|

----------------------------------|
----------------------------------|
----------------------------------|
---------------4-------3-3-3-3-3--|
-----------3-----------3-3-3-3-3--|
-2-3-2-5-2---2---2-3-2-1-1-1-1-1--|

---------------------------------|
---------------------------------|
------------------------7-7-7-7--|
------------------------6-6-6-6--|
-3332-4443-2443-333-222-5-5-5-5--|
-1110-2221-0221-111-000----------|
 pm.. .... .... ... ...

--------------------------------------------------|
--------------------------------------------------|
--------------------------------------------------|
-------------------------------------------4-3-3--|
-3-222-222-222-222-222-222-222-222-3-3-3-2-2-1-1--|
-1-000-000-000-000-000-000-000-000-1-1-1-0--------|
   pm. ... ... ... ... ... ... ...

---------------------------------|
---------------------------------|
------------------------7-7-7-7--|
------------------------6-6-6-6--|
-3332-4443-2443-333-222-5-5-5-5--|
-1110-2221-0221-111-000----------|
 pm.. .... .... ... ...

--------------------------------------------------------|
--------------------------------------------------------|
--------------------------------------------------------|
-----------------------------6-5-8-9-12-11-14-15-12-11--|
---------------------5-4-7-8----------------------------|
-1-0-3-4-7-6-3-4-6-7------------------------------------|

---------------------------------|
---------------------------------|
------------------------7-7-7-7--|
------------------------6-6-6-6--|
-3332-4443-2443-333-222-5-5-5-5--|
-1110-2221-0221-111-000----------|
 pm.. .... .... ... ...

--------------------------------------------------|
--------------------------------------------------|
--------------------------------------------------|
-------------------------------------------4-3-3--|
-3-222-222-222-222-222-222-222-222-3-3-3-2-2-1-1--|
-1-000-000-000-000-000-000-000-000-1-1-1-0--------|
   pm. ... ... ... ... ... ... ...

---------------------------------|
---------------------------------|
------------------------7-7-7-7--|
------------------------6-6-6-6--|
-3332-4443-2443-333-222-5-5-5-5--|
-1110-2221-0221-111-000----------|
 pm.. .... .... ... ...

--------------------------------------------------------|
--------------------------------------------------------|
--------------------------------------------------------|
-----------------------------6-5-8-9-12-11-14-15-12-11--|
---------------------5-4-7-8----------------------------|
-1-0-3-4-7-6-3-4-6-7------------------------------------|

----------------------------------|
----------------------------------|
-----3/4-----3/4-----3/4-----3/4--|
-----2/3-----2/3-----2/3-----2/3--|
-2-1-1/2-2-1-1/2-2-1-1/2-2-1-1/2--|
-0-0-----0-0-----0-0-----0-0------|
 pm.     . .     . .     . .

--------------------------------------------------|
--------------------------------------------------|
--------------------------------------------------|
---------------5---------------4-----------5------|
-----------3---------------3-----------------4----|
-2-3-2-5-2---2---2-3-2-5-2---2---2-3-2-5-2-----2--|

----------------------------------|
----------------------------------|
-----3/4-----3/4-----3/4-----3/4--|
-----2/3-----2/3-----2/3-----2/3--|
-2-1-1/2-2-1-1/2-2-1-1/2-2-1-1/2--|
-0-0-----0-0-----0-0-----0-0------|
 pm.     . .     . .     . .

--------------------------------------------------|
--------------------------------------------------|
--------------------------------------------------|
---------------5---------------4-----------5------|
-----------3---------------3-----------------4----|
-2-3-2-5-2---2---2-3-2-5-2---2---2-3-2-5-2-----2--|

----------------------------------|
----------------------------------|
-----3/4-----3/4-----3/4-----3/4--|
-----2/3-----2/3-----2/3-----2/3--|
-2-1-1/2-2-1-1/2-2-1-1/2-2-1-1/2--|
-0-0-----0-0-----0-0-----0-0------|
 pm.     . .     . .     . .

--------------------------------------------------|
--------------------------------------------------|
--------------------------------------------------|
---------------5---------------4-----------5------|
-----------3---------------3-----------------4----|
-2-3-2-5-2---2---2-3-2-5-2---2---2-3-2-5-2-----2--|

----------------------------------|
----------------------------------|
-----3/4-----3/4-----3/4-----3/4--|
-----2/3-----2/3-----2/3-----2/3--|
-2-1-1/2-2-1-1/2-2-1-1/2-2-1-1/2--|
-0-0-----0-0-----0-0-----0-0------|
 pm.     . .     . .     . .

--------------------------------|
--------------------------------|
-----3/4-----3/4-----3/4-----3--|
-----2/3-----2/3-----2/3-----2--|
-2-1-1/2-2-1-1/2-2-1-1/2-2-1-1--|
-0-0-----0-0-----0-0-----0-0----|
 pm.     . .     . .     . .

-----2---------3----------------2---------3------------|
-----2---------3----------------2---------3------------|
-------------------------------------------------------|
---2---------3---------v------2---------3---------v-v--|
---2---------3-------6-6-v----2---------3-------6-6-5--|
-0-0---000-0-0---000-----5--0-0---000-0-0---000--------|
       pm.       ...              ...       ...
v = vibrato

-----2---------3----------------2---------3------------|
-----2---------3----------------2---------3------------|
--------------------------------------------------v----|
---2---------3---------v------2---------3-------6-6-v--|
---2---------3-------6-6-v----2---------3-----------5--|
-0-0---000-0-0---000-----5--0-0---000-0-0---000--------|
       pm.       ...              ...       ...
v = vibrato

------------------------------------------------------------------|
------------------------------------------------------------------|
------------------------------------------------------------------|
---------------5---------------4---------------5---------------5--|
-----------3---------------3---------------3---------------3------|
-2-3-2-5-2---2---2-3-2-5-2---2---2-3-2-5-2---2---2-3-2-5-2---2----|

----------------------------------|
----------------------------------|
----------------------------------|
---------------4-------3-3-3-3-3--|
-----------3-----------3-3-3-3-3--|
-2-3-2-5-2---2---2-3-2-1-1-1-1-1--|

------------------------------------------------------------------|
------------------------------------------------------------------|
------------------------------------------------------------------|
---------------5---------------4---------------5---------------5--|
-----------3---------------3---------------3---------------3------|
-2-3-2-5-2---2---2-3-2-5-2---2---2-3-2-5-2---2---2-3-2-5-2---2----|

----------------------------------|
----------------------------------|
----------------------------------|
---------------4-------3-3-3-3-3--|
-----------3-----------3-3-3-3-3--|
-2-3-2-5-2---2---2-3-2-1-1-1-1-1--|

------------------------------------------------------------------|
------------------------------------------------------------------|
------------------------------------------------------------------|
---------------5---------------4---------------5---------------5--|
-----------3---------------3---------------3---------------3------|
-2-3-2-5-2---2---2-3-2-5-2---2---2-3-2-5-2---2---2-3-2-5-2---2----|

----------------------------------|
----------------------------------|
----------------------------------|
---------------4-------3-3-3-3-3--|
-----------3-----------3-3-3-3-3--|
-2-3-2-5-2---2---2-3-2-1-1-1-1-1--|

------------------------------------------------------------------|
------------------------------------------------------------------|
------------------------------------------------------------------|
---------------5---------------4---------------5---------------5--|
-----------3---------------3---------------3---------------3------|
-2-3-2-5-2---2---2-3-2-5-2---2---2-3-2-5-2---2---2-3-2-5-2---2----|

----------------------------------|
----------------------------------|
----------------------------------|
---------------4-------3-3-3-3-3--|
-----------3-----------3-3-3-3-3--|
-2-3-2-5-2---2---2-3-2-1-1-1-1-1--|

---------------------------------|
---------------------------------|
------------------------7-7-7-7--|
------------------------6-6-6-6--|
-3332-4443-2443-333-222-5-5-5-5--|
-1110-2221-0221-111-000----------|
 pm.. .... .... ... ...

--------------------------------------------------|
--------------------------------------------------|
--------------------------------------------------|
-------------------------------------------4-3-3--|
-3-222-222-222-222-222-222-222-222-3-3-3-2-2-1-1--|
-1-000-000-000-000-000-000-000-000-1-1-1-0--------|
   pm. ... ... ... ... ... ... ...

---------------------------------|
---------------------------------|
------------------------7-7-7-7--|
------------------------6-6-6-6--|
-3332-4443-2443-333-222-5-5-5-5--|
-1110-2221-0221-111-000----------|
 pm.. .... .... ... ...

--------------------------------------------------------|
--------------------------------------------------------|
--------------------------------------------------------|
-----------------------------6-5-8-9-12-11-14-15-12-11--|
---------------------5-4-7-8----------------------------|
-1-0-3-4-7-6-3-4-6-7------------------------------------|

---------------------------------|
---------------------------------|
------------------------7-7-7-7--|
------------------------6-6-6-6--|
-3332-4443-2443-333-222-5-5-5-5--|
-1110-2221-0221-111-000----------|
 pm.. .... .... ... ...

--------------------------------------------------|
--------------------------------------------------|
--------------------------------------------------|
-------------------------------------------4-3-3--|
-3-222-222-222-222-222-222-222-222-3-3-3-2-2-1-1--|
-1-000-000-000-000-000-000-000-000-1-1-1-0--------|
   pm. ... ... ... ... ... ... ...

---------------------------------|
---------------------------------|
------------------------7-7-7-7--|
------------------------6-6-6-6--|
-3332-4443-2443-333-222-5-5-5-5--|
-1110-2221-0221-111-000----------|
 pm.. .... .... ... ...

--------------------------------------------------------|
--------------------------------------------------------|
--------------------------------------------------------|
-----------------------------6-5-8-9-12-11-14-15-12-11--|
---------------------5-4-7-8----------------------------|
-1-0-3-4-7-6-3-4-6-7------------------------------------|

----------------------------------|
----------------------------------|
-----3/4-----3/4-----3/4-----3/4--|
-----2/3-----2/3-----2/3-----2/3--|
-2-1-1/2-2-1-1/2-2-1-1/2-2-1-1/2--|
-0-0-----0-0-----0-0-----0-0------|
 pm.     . .     . .     . .

--------------------------------------------------|
--------------------------------------------------|
--------------------------------------------------|
---------------5---------------4-----------5------|
-----------3---------------3-----------------4----|
-2-3-2-5-2---2---2-3-2-5-2---2---2-3-2-5-2-----2--|

----------------------------------|
----------------------------------|
-----3/4-----3/4-----3/4-----3/4--|
-----2/3-----2/3-----2/3-----2/3--|
-2-1-1/2-2-1-1/2-2-1-1/2-2-1-1/2--|
-0-0-----0-0-----0-0-----0-0------|
 pm.     . .     . .     . .

--------------------------------------------------|
--------------------------------------------------|
--------------------------------------------------|
---------------5---------------4-----------5------|
-----------3---------------3-----------------4----|
-2-3-2-5-2---2---2-3-2-5-2---2---2-3-2-5-2-----2--|

----------------------------------|
----------------------------------|
-----3/4-----3/4-----3/4-----3/4--|
-----2/3-----2/3-----2/3-----2/3--|
-2-1-1/2-2-1-1/2-2-1-1/2-2-1-1/2--|
-0-0-----0-0-----0-0-----0-0------|
 pm.     . .     . .     . .

--------------------------------------------------|
--------------------------------------------------|
--------------------------------------------------|
---------------5---------------4-----------5------|
-----------3---------------3-----------------4----|
-2-3-2-5-2---2---2-3-2-5-2---2---2-3-2-5-2-----2--|

----------------------------------|
----------------------------------|
-----3/4-----3/4-----3/4-----3/4--|
-----2/3-----2/3-----2/3-----2/3--|
-2-1-1/2-2-1-1/2-2-1-1/2-2-1-1/2--|
-0-0-----0-0-----0-0-----0-0------|
 pm.     . .     . .     . .

--------------------------------|
--------------------------------|
-----3/4-----3/4-----3/4-----3--|
-----2/3-----2/3-----2/3-----2--|
-2-1-1/2-2-1-1/2-2-1-1/2-2-1-1--|
-0-0-----0-0-----0-0-----0-0----|
 pm.     . .     . .     . .

-----2---------3----------------2---------3------------|
-----2---------3----------------2---------3------------|
-------------------------------------------------------|
---2---------3---------v------2---------3---------v-v--|
---2---------3-------6-6-v----2---------3-------6-6-5--|
-0-0---000-0-0---000-----5--0-0---000-0-0---000--------|
       pm.       ...              ...       ...
v = vibrato

-----2---------3----------------2---------3------------|
-----2---------3----------------2---------3------------|
--------------------------------------------------v----|
---2---------3---------v------2---------3-------6-6-v--|
---2---------3-------6-6-v----2---------3-----------5--|
-0-0---000-0-0---000-----5--0-0---000-0-0---000--------|
       pm.       ...              ...       ...
v = vibrato

-------------------------------|
-------------------------------|
-------0-----------0-let-ring--|
-----4-------4-----------------|
---4-----------4---------------|
-2-------2-2-----2-------------|X3

--------------------------------------------------|
--------------------------------------------------|
-------0-----------0-slowly push whammy bar down--|
-----4-------4------------------------------------|
---4-----------4----------------------------------|
-2-------2-2-----2--------------------------------|

-----------------------------------------------------------------------------|
-----------------------------------------------------------------------------|
-----------------------------------------------------------------------------|
-----------------------------------------------------------------------------|
-------4------------4-----3-3-3-4\3\0--------4------------4-----3-3-4\3-2-3--|
-3-3-3---3-6--3-3-3---3-6-1-1-1-2\1\0--3-3-3---3-6--3-3-3---3-6-1-1-2\1-0-1--|
 pm. .   .    . . .   .   . . .        . . .   .    . . .   .   . .     .

---------------------------------------------------------------------------|
---------------------------------------------------------------------------|
---------------------------------------------------------------------------|
---------------------------------------------------------------------------|
-------4------------4-----3-3-3-4\3\0--------4------------4-----2-2-3-2-2--|
-3-3-3---3-6--3-3-3---3-6-1-1-1-2\1\0--3-3-3---3-6--3-3-3---3-6-0-0-1-0-0--|
 pm. .   .    . . .   .   . . .        . . .   .    . . .   .   . . .

-----------------------------------------------------------------------------|
-----------------------------------------------------------------------------|
-----------------------------------------------------------------------------|
-----------------------------------------------------------------------------|
-------4------------4-----3-3-3-4\3\0--------4------------4-----3-3-4\3-2-3--|
-3-3-3---3-6--3-3-3---3-6-1-1-1-2\1\0--3-3-3---3-6--3-3-3---3-6-1-1-2\1-0-1--|
 pm. .   .    . . .   .   . . .        . . .   .    . . .   .   . .     .

---------------------------------------------------------------------------|
---------------------------------------------------------------------------|
---------------------------------------------------------------------------|
---------------------------------------------------------------------------|
-------4------------4-----3-3-3-4\3\0--------4------------4-----2-2-3-2-2--|
-3-3-3---3-6--3-3-3---3-6-1-1-1-2\1\0--3-3-3---3-6--3-3-3---3-6-0-0-1-0-0--|
 pm. .   .    . . .   .   . . .        . . .   .    . . .   .   . . .

----------------------------------|
----------------------------------|
-----3/4-----3/4-----3/4-----3/4--|
-----2/3-----2/3-----2/3-----2/3--|
-2-1-1/2-2-1-1/2-2-1-1/2-2-1-1/2--|
-0-0-----0-0-----0-0-----0-0------|X4
 pm.     . .     . .     . .

----------------------------------|
----------------------------------|
-----3/4-----3/4-----3/4-----3/4--|
-----2/3-----2/3-----2/3-----2/3--|
-2-1-1/2-2-1-1/2-2-1-1/2-2-1-1/2--|
-0-0-----0-0-----0-0-----0-0------|
 pm.     . .     . .     . .

--------------------------------------------------|
--------------------------------------------------|
--------------------------------------------------|
---------------5---------------4-----------5------|
-----------3---------------3-----------------4----|
-2-3-2-5-2---2---2-3-2-5-2---2---2-3-2-5-2-----2--|

----------------------------------|
----------------------------------|
-----3/4-----3/4-----3/4-----3/4--|
-----2/3-----2/3-----2/3-----2/3--|
-2-1-1/2-2-1-1/2-2-1-1/2-2-1-1/2--|
-0-0-----0-0-----0-0-----0-0------|
 pm.     . .     . .     . .

--------------------------------------------------|
--------------------------------------------------|
--------------------------------------------------|
---------------5---------------4-----------5------|
-----------3---------------3-----------------4----|
-2-3-2-5-2---2---2-3-2-5-2---2---2-3-2-5-2-----2--|

----------------------------------|
----------------------------------|
-----3/4-----3/4-----3/4-----3/4--|
-----2/3-----2/3-----2/3-----2/3--|
-2-1-1/2-2-1-1/2-2-1-1/2-2-1-1/2--|
-0-0-----0-0-----0-0-----0-0------|X3
 pm.     . .     . .     . .

--------------------------|
--------------------------|
-4-5--4-5--4-5--4-5--4-5--|
-3-4--3-4--3-4--3-4--3-4--|
-2-3--2-3--2-3--2-3--2-3--|
--------------------------|
Добавлено: 07.05.2012
Другие материалы по этой песне:
  • Аккорды и текст

Страница создана 07.05.2012
http://primanota.ru/decapitated/visual-dilusion-chords.htm
Привет, Гость.
Предлагаем пройти революционный курс по гитаре.
Подарок от PrimaNota.Ru, забирай!