PrimaNota.ru - самый крупный в мире бесплатный архив песенных текстов, аккордов, табулатур и нот


Decapitated - Suffer The Children Napalm Death Cover - текст песни, таба, видео

Регистрация Запомнить меня
Войти через:  Facebook Google Twitter Vk Yandex Mail.ru

Decapitated - Suffer The Children Napalm Death Cover - текст песни, таба, видео

Печатать
Просмотров: 174
Уроки эстрадного вокала в Санкт-Петербурге
-------------------------------------------------------------------------------
                             Suffer the Children - Decapitated
-------------------------------------------------------------------------------
Tabbed by: Lawrence Brown

Email: Loza04@msn.com

Tuning: Whole step down (Standard D)


This is a Cover of a Napalm Death Song.


This is my first tab i think its near perfect maybe perfect, feeback is welcome :)

The Decapitated version is different in places to the original.

R.I.P. Vitek


(Riff 1)

d|------------------------------------------------------|
A|------------------------------------------------------|
F|------------------------------------------------------|
C|----------------3-------------6-------------3-4-------|
G|-3-----------2--1----------2--4----------2--1-2--6-5--|
D|-1--0-0-0-0--0----0-0-0-0--0----0-0-0-0--0-------4-3--|

d|------------------------------------------------------|
A|------------------------------------------------------|
F|------------------------------------------------------|
C|----------------3-------------6-------------9-8-------|
G|-3-----------2--1----------2--4----------2--7-6--5-6--|
D|-1--0-0-0-0--0----0-0-0-0--0----0-0-0-0--0-------3-4--|


X4


(Riff 2)

d|-----------------------------------------------------------|
A|-----------------------------------------------------------|
F|-----------------------------------------------------------|
C|-----------------------------------------------------------|
G|-3-------------------------------3----------------5-6-5-6--|
D|-1--0-0-0-0-0-0-0-0-0-0-0-0-0-0--1---0-0-0-0-0-0--3-4-3-4--|

d|-----------------------------------------------------------|
A|-----------------------------------------------------------|
F|-----------------------------------------------------------|
C|-----------------------------------------------------------|
G|-3-------------------------------3----------------6-5-6-5--|
D|-1--0-0-0-0-0-0-0-0-0-0-0-0-0-0--1---0-0-0-0-0-0--4-3-4-3--|


X2


Then back to Riff 1 and then 2 again

(Riff 3)

d|-----------------------------------------------|
A|-----------------------------------------------|
F|-----------------------------------------------|
C|---------6---6---------------------3-----------|
G|-2--3----4---4--5/6-5/6----2--3----1--5/6-5/6--|
D|-0--1----4---4--3/4-3/4----0--1----1--3/4-3/4--|


d|-----------------------------------------------|
A|-----------------------------------------------|
F|-----------------------------------------------|
C|---------6---6---------------------3-----------|
G|-2--3----4---4--5/6-5/6----2--3----1--5/6-5/6--|
D|-0--1----4---4--3/4-3/4----0--1----1--3/4-3/4--|

x2

(Riff 4)

d|---------------------------------------------------|
A|---------------------------------------------------|
F|---------------------------------------------------|
C|---------6---6-------------------------3-----------|
G|-2--3----4---4--5/6-5/6------------3---1--5/6-5/6--|
D|-0--1----4---4--3/4-3/4---0-0-0-0--1---1--3/4-3/4--|

d|---------------------------------------------------|
A|---------------------------------------------------|
F|---------------------------------------------------|
C|---------6---6-------------------------3-----------|
G|-2--3----4---4--5/6-5/6------------3---1--5/6-5/6--|
D|-0--1----4---4--3/4-3/4---0-0-0-0--1---1--3/4-3/4--|

X2

(Riff 5)

d|--------------------------------|
A|--------------------------------|
F|--------------------------------|
C|--------6---------------6-------|
G|--2--3--4--5/6----2--3--4--5/6--|
D|--0--1-----3/4----0--1-----3/4--|
                                   Play Fast!
d|--------------------------------|
A|--------------------------------|
F|--------------------------------|
C|--------6---------------6-------|
G|--2--3--4--5/6----2--3--4--5/6--|
D|--0--1-----3/4----0--1-----3/4--|

X2


(Riff 6)

d|--------------------------------------------------------------------------------------|
A|--------------------------------------------------------------------------------------|
F|--------------------------------------------------------------------------------------|
C|--------------------------------88888888----------------------------------------------|
G|----------------66666-55555555------------------------------66666-55555555------------|
D|--777777777777--------------------------------777777777777------------------44444444--|

d|--------------------------------------------------------------------------------------|
A|--------------------------------------------------------------------------------------|
F|--------------------------------------------------------------------------------------|
C|--------------------------------88888888----------------------------------------------|
G|----------------66666-55555555------------------------------66666-55555555------------|
D|--777777777777--------------------------------777777777777------------------44444444--|


(Riff 7)

d|----------------------------------------------------------------------------------------|
A|----------------------------------------------------------------------------------------|
F|----------------------------------------------------------------------------------------|
C|----------------------------------------------------------------------------------------|
G|----------------------7777777777777777---------------------------8888-7777777777777777--|
D|--666666666666--4444--------------------666666666666--4444-5555-------------------------|


d|----------------------------------------------------------------------------------------|
A|----------------------------------------------------------------------------------------|
F|----------------------------------------------------------------------------------------|
C|----------------------------------------------------------------------------------------|
G|----------------------7777777777777777---------------------------8888-7777777777777777--|
D|--666666666666--4444--------------------666666666666--4444-5555-------------------------|

Then back to Riff 5 and then repeat Riff 6 & 7 then back to riff 5 again and then Riff 8


(Riff 8)

d|----------------|
A|----------------|
F|----------------|
C|----------------|
G|--2-------------|
D|--0-------------| Let it ring

(Riff 9)

d|------------------------------------|
A|------------------------------------|
F|------------------------------------|
C|--------------3---------------------|
G|--------------1--------------5/6-3--|
D|--0--0--0--0-----0--0--0--0--3/4-1--|

d|---------------------------------|
A|---------------------------------|
F|---------------------------------|
C|--------------3------------------|
G|--------------1-----2-----4\3-4--|
D|--0--0--0--0-----0--0--0--2\1-2--|

x4

(Riff 10)

d|----------------------------------------------------------------------|
A|----------------------------------------------------------------------|
F|----------------------------------------------------------------------|
C|-------------------3----4----5------------------------3----4----6-----|
G|-------------------1----2----3------------------------1----2----4-----|
D|--0-0-0-0-0-0-0-0--------------3b----0-0-0-0-0-0-0-0--------------3b--|


d|----------------------------------------------------------------------|
A|----------------------------------------------------------------------|
F|----------------------------------------------------------------------|
C|-------------------3----4----5------------------------3----4----6-----|
G|-------------------1----2----3------------------------1----2----4-----|
D|--0-0-0-0-0-0-0-0--------------3b----0-0-0-0-0-0-0-0--------------3b--|

Then back to Riff 9 (only play twice)
Then back to 10 (play it twice)


d|----------------|
A|----------------|
F|----------------|
C|----------------|
G|--2-------------|
D|--0-------------| Let it ring


Well thats my first tab hope you enjoy it, please rate and comment!

| /  slide up
| \  slide down
| h  hammer-on
| p  pull-off
| ~  vibrato
| +  harmonic
| x  Mute note
===============================================================================
Добавлено: 30.04.2012
Другие материалы по этой песне:
  • Аккорды и текст

Страница создана 30.04.2012
http://primanota.ru/decapitated/suffer-the-children-napalm-death-cover-chords.htm
Привет, Гость.
Предлагаем пройти революционный курс по гитаре.
Подарок от PrimaNota.Ru, забирай!