PrimaNota.ru - самый крупный в мире бесплатный архив песенных текстов, аккордов, табулатур и нот


Decapitated - Long Desired Demetia - таба, видео

Регистрация Запомнить меня
Войти через:  Facebook Google Twitter Vk Yandex Mail.ru

Decapitated - Long Desired Demetia - таба, видео

Печатать
Просмотров: 92
Band: Decapitated
Album: The Negation
Song: Long-Desired Dementia

Copyright (c) Earache Records, 2004
Version 1.0, 10/3/2006 - 18/5/2006

Suffixes for bend:
fb - full bend       hb - half bend
qb - quarter bend    t - tap bend
^ - Hold bend        r - release bend
~ - vibrato bend

Suffixes for harmonic:
ph - pinched harmonic      nh – natural harmonic
ah – artificial harmonic   hh – harp harmonic

Suffixes for mute:
. – palm mute            x – staccato mute
, - light palm mute      ; - heavy palm mute

Other:
/ - slide up to            \ - slide down to
h - hammer on              p - pull off
‘ - sustained note         * - see comment
" - tremolo note           <> - Trill
L – left channel only      R – right channel only
= - 12 string guitar part

Tuning C# F# B E G# C#

Riff 1a (0:00)
|-----------------------------------------------|
|-----------------------------------------------|
|-----------------13\---------12~---------------|
|-----------------------------------------------|
|-2--------887755-11\---------10~---11-10-7-8~~-|
|-0--13"\0-------------000000-------------------|
                       ......

Riff 1b (0:03)
|-----------------------------------------------|
|-----------------------------------------------|
|-----------------13\---------------------------|
|-----------------------------------------------|
|-2--------887755-11\---------8\5---6\5---5/8-8-|
|-0--13"\0-------------000000-6\3-0-4\3-0-3/6-6-|
                       ......     .     .

Riff 1c (0:06)
|-----------------------------------------------|
|-----------------------------11~---------------|
|-----------------13\---------------------------|
|-----------------------------8-~---9--8--5-6~--| gtr 1
|-2--------887755-11\---------------------------|
|-0--13"\0-------------000000-------------------|
                       ......
|-------------------------------------------------|
|-----------------------------11~-----------------|
|-----------------13\-----------------------------|
|-----------------------------8-~-----------------| gtr 2
|-2--------887755-11\---------------11-10-7-8ph~--|
|-0--13"\0-------------000000---------------------|
                       ......

Riff 1b x 1 (0:10)
Riff 1a x 1 (0:13)
Riff 1b x 1 (0:16)
Riff 1c x 1 (0:19)
Riff 1b x 1 (0:23)

Riff 2 (0:26) play twice    [*] = don't play second time
|--------------------------------------------------------------------|
|--------------------------------------------------------------------|
|--------5~--4~------------------------------------------------------|
|----------------5~--------------------------------------------------|
|--------3~--2~----------------------------------3--2----------------|
|-000000---------3~--4444446666667\-000000111111-1--1--4--3~--4-3-6--|
  ......             ............   ............              . . .

|--------------------------------------------------------------------|
|--------------------------------------------------------------------|
|--------------------------------------------------------------------|
|--------3~--2~--5~--------------------------------------------------|
|------------------------------------------------3--2----------------|
|-000000-1~--0~--3~--4444446666667\-000000111111-1--1--4--3~--4-3-6--|
  ......             ............   ............              . . .

          [*] ---------------------| [*]
----------|------------------------|
----------|------------------------|
----------|----------4--3----------|
-9\8/9----|----------------| gtr 1-|
-------9--|-2--------2--1----------|
-7\6/7-7--|-0--0-0-0---------------|
               . . .
----------|----------------|
----------|----------------|
----------|----------------|
-9\8/9----|----------4--3--| gtr 2
-------9--|-2--------------|
-7\6/7-7--|-0--0-0-0-2--1--|
               . . .

Riff 3a (0:40)
|----------------------------------------------------|
|----------------------------------------------------|
|----------------------------------------------------|
|--------5-----777777-------888888888888-------------|
|----------6-5----------5------------------2---2---2-|
|-333333--------------3---6--------------4---4---3---|
  ...... . . .        . . .              . . . . . .

Riff 3b (0:44)
|-----------------------------------------------------|
|-----------------------------------------------------|
|-----------------------------------------------------|
|--------5-----777777-------666666-------777777666666-|
|----------6-5----------5----------2-3----------------|
|-333333--------------3---6------------3--------------|
  ...... . . .        . . .        . . .

Riff 3a x 1 (0:47)

Riff 3c (0:50)
|----------------------------------------------------|
|----------------------------------------------------|
|----------------------------------------------------|
|--------5-----777777-------666666-------6666667<11>-| gtr 1
|----------6-5----------5----------2-3---------------|
|-333333--------------3---6------------3-------------|
  ...... . . .        . . .        . . .

|---------------------------------------------------|
|---------------------------------------------------|
|---------------------------------------------------|
|--------5-----777777-------666666-------6666667ph~-| gtr 2
|----------6-5----------5----------2-3--------------|
|-333333--------------3---6------------3------------|
  ...... . . .        . . .        . . .

Riff 2 x 1 (0:53)
Riff 3a x 1 (1:08)
Riff 3b x 1 (1:11)
Riff 3a x 1 (1:14)
Riff 3c x 1 (1:18)

Riff 4a (1:21) play 4 times
|---------------------------|
|---------------------------|
|---------------------------|
|---------------------------|
|---------------------------|
|-000000-1-0-1-2-1-0-111111-|
  ...... . . . . . . ......

Riff 4b (1:27) play 4 times
|---------------------------|
|---------------------------|
|---------------------------|
|---------------------------| gtr 1
|---------------------------|
|-000000-1-0-1-2-1-0-111111-|
  ...... . . . . . . ......

|---------------------------|
|---------------------------|
|---------------------------|
|--------------------333333-| gtr 2
|---------------------------|
|-000000-1-0-1-2-1-0--------|
  ...... . . . . . .

Riff 5a (1:34)
|--------------------------------------------------------------------|
|--------------------------------------------------------------------|
|--------------------------------------------------------------------|
|--------------------------------------------------------------------|
|-4-------444444-5-------555555-4-------444444-5-------555555777-----|
|---3-0-3----------4-0-4----------3-0-3----------4-0-4-----------3-0-|
  . . . .        . . . .        . . . .        . . . .           . .

----------------------------------------------------------|
----------------------------------------------------------|
----------------------------------------------------------|
---222222------------------------44445555--------44443333-|
----------4-------666666-66667777-------------------------|
-3----------3-0-3------------------------33332222---------|
 .        . . . .

Riff 5b (1:40)
|--------------------------------------------------------------|
|--------------------------------------------------------------|
|--------------------------------------------------------------|
|--------------------------------------------------------------|
|-4-------444444-4-------555555---------555555444--------------|
|---3-0-3----------3-0-3--------5-2-0-2-----------3-0-3-666666-|
  . . . .        . . . .        . . . .           . . .

Riff 6a (1:44)
|--------------------------------------------|
|--------------------------------------------|
|--------------------------------------------|
|--------------------------------------------|
|-------------------------3\2-------------6--|
|-0-0-1-0-3-6-0---0-0-0-0-1\0-0-0-0-0-0-0-4--|
  . . . . . . .   . . . .     . . . . . .

Riff 6b (1:46)
|-------------------------------------------------------------|
|-------------------------------------------------------------|
|-------------------------------------------------------------|
|-------------------------------------------------------------|
|---------------------------------3\2-------------6\5-----6/8-|
|-0-0-0-0-0-0-1-0-3-6-0---0-0-0-0-1\0-0-0-0-0-0-0-4\3-0-0-4/6-|
  . . . . . . . . . . .   . . . .     . . . . . .

Riff 6a x 1 (1:50)
Riff 6b x 1 (1:54)
Riff 5a x 1 (1:57)
Riff 5b x 1 (2:03)

Riff 5c (2:07)
|----------------------------------------------------------------|
|----------------------------------------------------------------|
|----------------------------------------------------------------|
|-2-------222222------------------------44445555--------44443333-| gtr 1
|------------------------666666-66667777-------------------------|
|---3-0-3--------0-2-0-2------------------------33332222---------|
    . . .        . . . .
|----------------------------------------------------------------|
|----------------------------------------------------------------|
|---------------------------------------22223333-----------------|
|-2-------222222----------------44445555----------------77776666-| gtr 2
|------------------------666666----------------------------------|
|---3-0-3--------0-2-0-2------------------------66665555---------|
    . . .        . . . .

Riff 5d (2:10)
|----------------------|
|----------------------|
|----------------------|
|---------44443333-----| gtr 1
|----------------------|
|-33332222--------13\0-|

|----------------------|
|----------------------|
|----------------------|
|---------77776666-----| gtr 2
|----------------------|
|-66665555--------13\0-|


Riff 7a (2:12)
|----------------------------------------------------------------------|
|----------------------------------------------------------------------|
|----------------------------------------------------------------------|
|---------------3-----------------3------------------3---------------3-|
|---------------2-----------------2------------------2---------------2-|
|-11110000-3333-----11110000-3333------11110000-3333---11110000-3333---|
  ........ ....     ........ ....      ........ ....   ........ ....

Riff 7b (2:16)
|--------------------------------|
|--------------------------------|
|-------------------------11\10--|
|---------------3----------------| gtr 1
|---------------2-9\8--5/6-9-\8--|
|-11110000-3333---7\6--3/4-------|
  ........ ....

|--------------------------------|
|--------------------------------|
|-------------------------11\10--|
|---------------3----------------| gtr 2
|---------------2----------9-\8--|
|-11110000-3333------------------|
  ........ ....

Riff 7a x 1 (2:18)
Riff 7b x 1 (2:23)
Riff 1a x 1 (2:25)
Riff 1b x 1 (2:28)
Riff 1c x 1 (2:31)
Riff 1b x 1 (2:34)
Riff 2 x 2 (2:38)
Riff 3a x 1 (2:52)
Riff 3C x 1 (3:01)
Riff 4a x 4 (3:06)
Riff 4b x 3 (3:12)

Riff 4c (3:17)
|----------------|
|----------------|
|----------------|
|--------------3-|
|--------------2-|
|-000000-1-0-1---|
  ...... . . . .

End.
Добавлено: 07.06.2012
Другие материалы по этой песне:

Страница создана 01.03.2012
http://primanota.ru/decapitated/long-desired-demetia-chords.htm
Привет, Гость.
Предлагаем пройти революционный курс по гитаре.
Подарок от PrimaNota.Ru, забирай!