PrimaNota.ru - самый крупный в мире бесплатный архив песенных текстов, аккордов, табулатур и нот


Decapitated - Empty Throne - текст песни, таба, видео

Регистрация Запомнить меня
Войти через:  Facebook Google Twitter Vk Yandex Mail.ru

Decapitated - Empty Throne - текст песни, таба, видео

Печатать
Просмотров: 171
posted by tommynel2003@yahoo.com

Band: Decapitated 
Album: The Negation 
Song: The Empty Throne 

Copyright (c) Earache Records, 2004 

Transcribed By: Andrew Collyer 
Contact: immortalshadow666@gmail.com 

Check out Doomish.Com With more
Doom/Death/Blackmetal Tabs,Metal news, Reviews, Articles
http://www.doomish.com

Code: 
. - palm mute           / - slide up to 
\ - slide down to       x – Staccato 
h - hammer on           p - pull off 
, - slight palm mute    () - ghost note, sustained note 
" - tremolo note        <> - Trill 
L – left channel only   R – right channel only 
* - see comment 

Suffixes for bend 
f - full bend       h - half bend 
q - quarter bend    t - tap bend 
^ - Hold bend       r - release bend 
~ - vibrato bend 

Suffixes for harmonic 
ph - pinched harmonic   n – natural/artificial harmonic 

Tuning C# F# B E G# C# 


Riff 1a (0:00) 
|------------------------------------------------------------------| 
|------------------------------------------------------------------| 
|------------------------------------------------------------------| 
|------------------------------------------------------------------| 
|-------------11112222-2---------------------11112222--------0000--| 
|-444444443333---------0-333-444-444444443333--------00001111------| 
  ....................   ... ... ................................ 

Riff 1b (0:05) 
|-------------------------------------------------------------------| 
|-------------------------------------------------------------------| 
|-------------------------------------------------------------------| 
|-------------------------------------------------------------------| 
|-------------11112222-2~---------------------1-1-2-2------3---5-4--| 
|-444444443333------------333-444-4-4-4-4-3-3---------0000---5-3-2--| 
  ....................    ... ... . . . . . . . . . . .... . . . . 

Riff 1c (0:11) 
|------------------------------------------------------------------| 
|------------------------------------------------------------------| 
|------------------------------------------------------------------| 
|------------------------------------------------------------------| 
|-------------11112222-2---------------------11112222--------0000--| 
|-444444443333-----------333-444-444444443333--------00001111------| 
  ....................   ... ... ................................ 

Riff 1b x 1 (0:16) 

Fill 1 (0:21) 
|-----------| 
|-----------| 
|-----------| 
|-5---------| 
|-3---------| 
|-3---------| 

Riff 1a x 1 (0:22) 
Riff 1b x 1 ( 

Riff 1d (0:28) 
|-------------------------------------------------------------------| 
|-------------------------------------------------------------------| 
|-------------------------------------------------------------------| 
|-------------------------------------------------------------------| 
|-------------11112222-2~---------------------11112222-----3---5-4--| 
|-444444443333------------333-444-444444443333--------0000---5-3-2--| 
  ....................    ... ... . . . . . . . . . . .... . . . . 

Riff 1c x 1 (0:33) 
Riff 1b x 1 (0:39) 

Riff 2a (0:44) play twice 
|--------------------------| 
|--------------------------| 
|--------------------------| 
|---------------------5h8--| 
|-2--2-2-2-2-2-3--2-2------| 
|-0--0-0-0-0-0-1--0-0------| 
       . . . .    . . 

Riff 2b (0:49) 
|----------|-----------|---------------------| 
|----------|-----------|---------------------| 
|----------|-----------|---------------------| 
|-6~-6~-6~-|-6~-6~-6~--|----------------5h8--| gtr 1 
|----------|-----------|-2-2-2-2-3--2-2------| 
|----------|-----------|-0-0-0-0-1--0-0------| 
                         . . . . .  . . 

|----------|-----------|---------------------| 
|----------|-----------|---------------------| 
|----------|-5~-5~-5~--|---------------------| 
|-6~-6~-6~-|-----------|----------------5h8--| gtr 2 
|----------|-----------|-2-2-2-2-3--2-2------| 
|----------|-----------|-0-0-0-0-1--0-0------| 
                         . . . .    . . 

Riff 2a x 1 (0:55) 
Riff 2b x 1 (1:00) 

Riff 3a (1:05) 
|--------------------------------------------| 
|--------------------------------------------| 
|--------------------------------------------| 
|----2"-1"-2"-1"-----------------------------| gtr 1 
|----------------3"-2"-3"-2"-----------------| 
|-0"-------------------------4"-3"-2"-3"-4"--| 
  .  .  .  .  .  .  .  .  .  .  .  .  .  . 
Riff 3b (1:08) 
|-----------------------------------------------| 
|-----------------------------------------------| 
|-----------------------------------------------| 
|----2"-1"-2"-1"-------2"-1"-2"-1"-------2"-1"--| gtr 1 
|----------------3"-2"-------------3"-2"--------| 
|-0"--------------------------------------------| 
  .  .  .  .  .  .  .  .  .  .  .  .  .  .  . 

Riff 3a x 1 (1:11) 

Riff 3c (1:13) 
|--------------------------------------| 
|--------------------------------------| 
|--------------------------------------| 
|----2"-1"-2"-1"-----------------------| 
|----------------3"-2"-------------8ph-| 
|-0"-------------------6-0-0-0-5-6-----| 
  .  .  .  .  .  .  .    . . . 

Riff 3a x 1 (1:16) 
Riff 3b x 1 (1:18) 
Riff 3a x 1 (1:21) 
Riff 3c x 1 (1:24) 
Fill 1 x 1 (1:27) 
Riff 1a x 1 (1:28) 
Riff 1b x 1 (1:33) 
Riff 1c x 1 (1:39) 
Riff 1b x 1 (1:44) 
Riff 2a x 1 (1:49) 
Riff 2b x 1 (1:54) 
Riff 2a x 1 (2:00) 
Riff 2b x 1 (2:05) 

Solo begins: (2:11) 
Riff 2a x 1 (2:11) 
Riff 2b x 1 (2:16) 
Riff 2a x 1 (2:21) 
Riff 2b x 1 (2:27) 

Riff 3a x 1 (2:32) 
Riff 3b x 1 (2:35) 
Riff 3a x 1 (2:37) 
Riff 3c x 1 (2:40) 
Riff 3a x 1 (2:43) 
Riff 3b x 1 (2:46) 
Riff 3a x 1 (2:48) 
Riff 3c x 1 (2:51) 
Fill 1 x 1 (2:54) 
Riff 1a x 1 (2:55) 
Riff 1b x 1 (3:00) 
Riff 1c x 1 (3:05) 
Riff 1b x 1 (3:11) 
Riff 2a x 1 (3:16) 
Riff 2b x 1 (3:21) 
Riff 2a x 1 (3:27) 
Riff 2b x 1 (3:32) 

Solo begins: (3:38) 
Riff 2a x 1 (3:38) 
Riff 2b x 1 (3:43) 
Riff 2a x 1 (3:48) 
Riff 2b x 1 (3:54) 
Riff 2a x 1 (3:59) 
Riff 2b x 1 (4:04) 
Riff 2a x 1 (4:10) 
Riff 2b x 1 (4:15) 
Riff 2a x 1 (4:20) begin to fade out here 
Riff 2b x 1 (4:26) 
Riff 2a x 1 (4:31) 
Riff 2b x 1 (4:36) 
Riff 2a x 1 (4:41) 
End



Check out Doomish.Com With more
Doom/Death/Blackmetal Tabs,Metal news, Reviews, Articles
http://www.doomish.com
Добавлено: 21.04.2012
Другие материалы по этой песне:

Страница создана 21.04.2012
http://primanota.ru/decapitated/empty-throne-chords.htm
Привет, Гость.
Предлагаем пройти революционный курс по гитаре.
Подарок от PrimaNota.Ru, забирай!