PrimaNota.ru - самый крупный в мире бесплатный архив песенных текстов, аккордов, табулатур и нот


Decapitated - Mother War - текст песни, таба, видео

Регистрация Запомнить меня
Войти через:  Facebook Google Twitter Vk Yandex Mail.ru

Decapitated - Mother War - текст песни, таба, видео

Печатать
Просмотров: 130
-------------------------------------------------------------------------------
                             MOTHER WAR - Decapitated
-------------------------------------------------------------------------------
Tabbed by: thesun.is.humming@gmail.com

Tuning: D

Fig. 1 A                                     Fig. 1 B
e|------------------------------------------|-----------------------------------|
B|------------------------------------------|-----------------------------------|
G|------------------------------------------|-----------------------------------|
D|-2-------------------------------------2--|--------------------------------2--|
A|-2-------2-3-2---1-2-1---1-2p1-5-5-----2--|-2-3-2---1--0-3-3-5-----------3-2--|
E|-0-break-------3-------3-3-----3-3-5-6-0--|-------3-3--2-1-1-3-5-6-3h6p3-1-0--|

Fig. 2 A             *                    **  (one guitar only)
e|------------|--------------|---|-----------------|
B|------------|--------------|---|-----------------|
G|------------|-----3--------|---|-----------------|
D|-4/5--------|--------------|-2-|-----------------|
A|-2/3--------|--------------|-2-|-2-3-2---1-2-1---|
E|-----543543-|-333---333331-|-0-|-------3-------3-|

Fig. 1 A&B (both guitars)

Fig. 2

Fig. 2 B
e|-------|
B|-------|
G|-------|
D|-2-222-|
A|-2-222-|
E|-0-000-|


Fig. 3
e|---guitar 1--------------------------------------------------------|
B|-------------------------------------------------------------------|
G|---------------------------------------------------------------3---|
D|-----------------------------------3-4-------------------------1-3-|
A|----------1------------------1-----3-4----------1----------------1-|
E|-23333333---3331111123333333---333-1-2-23333333---333111112333-----|
 |                                                                   |
e|---guitar 2--------------------------------------------------------|
B|-------------------------------------------------------------------|
G|-------------------------------------------------------------------|
D|-----------------------------------3-4-5---------------------------|
A|-----------------------------------3-4-5---------------------------|
E|-----------------------------------1-2-3---------------------------|


Fig. 4 (both guitars)
e|-------------------------------------------------------------------|
B|-------------------------------------------------------------------|
G|---------------------------------------------------------------3---|
D|-----------------------------------3-4-------------------------1-3-|
A|----------1------------------1-----3-4----------1----------------1-|
E|-23333333---3331111123333333---333-1-2-23333333---333111112333-----|


Fig. 5
                                 |1st ending_____|2nd ending_____________|last ending|
e|-------------------------------|---------------|-----------------------|-----------|
B|-------------------------------|---------------|-----------------------|-----------|
G|-------------------------------|---------------|-----------3-----3-3-2-|-----------|
D|-------------------------------|-------------4-|-----------3-----3-3-2-|-3-3-2-----|
A|-----222-111-----000-111---0-1-|---2-1---0-1-2-|---2-1-----1-----1-1-0-|-3-3-2-----|
E|-000---------333---------3-----|-0-----3-------|-0-----0-0---0-0-------|-1-1-0-----|


Fig. 6
e|-------------------------|
B|-------------------------|
G|-----------------7-6-7-6-|
D|-----------------7-6-7-6-|
A|---2-1-------0-1-5-4-5-4-|
E|-0-----3-3-3-------------|


that's all I've got for now...

* = I have no idea what he's actually playing here, but this sounds okay
** = there's a trade off thing between the two guitars that I didn't bother to tab, but 
very simple, listen to the song


| /  slide up
| \  slide down
| h  hammer-on
| p  pull-off
===============================================================================
Добавлено: 14.06.2012
Другие материалы по этой песне:

Страница создана 08.06.2012
http://primanota.ru/decapitated/mother-war-chords.htm
Привет, Гость.
Предлагаем пройти революционный курс по гитаре.
Подарок от PrimaNota.Ru, забирай!