PrimaNota.ru - самый крупный в мире бесплатный архив песенных текстов, аккордов, табулатур и нот


Deathstars - Motherzone - текст песни, таба, видео

Регистрация Запомнить меня
Войти через:  Facebook Google Twitter Vk Yandex Mail.ru

Deathstars - Motherzone - текст песни, таба, видео

Печатать
Просмотров: 209
=========================================================

                      "Motherzone"
                    
                      Deathstars

                   Termination Bliss

=========================================================


Tabbed by: John Moores  

Tuning: Drop C (CGCFAD)

Legend: * = Palm Mute
        ~ = Let ring

I know this song has a striking similarity to the Deathstars' "Blood Stains
Blondes," but hey, no one said this was the most original band in the 
world.  And the songs are good and catchy and what not.  So here it is:


Intro

0:12
Pick Scratch
|--------------------------------------------------------|
|--------------------------------------------------------|
|--------------------------------------------------------|
|-----x//////--------------------------------------------|
|-----x//////--------------------------------------------|
|-----x//////--------------------------------------------|



0:14                                                
|-------------------------------------------------------------|    
|-------------------------------------------------------------|    
|-------------------------------------------------------------|    
|-------------------------------------------------------------|    
|---0-0-0-0-0-0-0-0--8-8-8-8-8-8-8-8--10-10-10-10-10-10-10-10-|    
|---0-0-0-0-0-0-0-0--8-8-8-8-8-8-8-8--10-10-10-10-10-10-10-10-|

|-------------------------------------------------------------|      
|-------------------------------------------------------------|    
|-------------------------------------------------------------|    
|----5--5--5--5-----------------------------------------------|    
|----5--5--5--5-----------------------------------------------|    
|----5--5--5--5-----------------------------------------------|    

|-------------------------------------------------------------|    
|-------------------------------------------------------------|    
|-------------------------------------------------------------|    
|-------------------------------------------------------------|    
|---0-0-0-0-0-0-0-0--8-8-8-8-8-8-8-8--10-10-10-10-10-10-10-10-|    
|---0-0-0-0-0-0-0-0--8-8-8-8-8-8-8-8--10-10-10-10-10-10-10-10-|    
                                                                   
|-------------------------------------------------------------|      
|-------------------------------------------------------------|    
|-------------------------------------------------------------|    
|----5-5-5----3-3-3-----0-------------------------------------|    
|----5-5-5----3-3-3-----0-------------------------------------|    
|----5-5-5----3-3-3-----0-------------------------------------|  
              * * * 

Verse 1
0:28
|--------------------------------------------------------|
|--------------------------------------------------------|
|--------------------------------------------------------|
|--------------------------------------------------------|
|--------------------------------------------------------|
|--------------------------------------------------------|

Pre-chorus
0:56

|------------------------------------------------------|
|------------------------------------------------------|
|------------------------------------------------------|
|----8----11----12------10----8-------5-5-5---3----7---|
|----8----11----12------10----8--7-7--5-5-5---3----7---|
|----8----11----12------10----8--7-7--5-5-5---3----7---|
                                 * *    * *

Chorus
1:09
|-------------------------------------------------------------|    
|-------------------------------------------------------------|    
|-------------------------------------------------------------|    
|-------------------------------------------------------------|    
|---0-0-0-0-0-0-0-0--8-8-8-8-8-8-8-8--10-10-10-10-10-10-10-10-|    
|---0-0-0-0-0-0-0-0--8-8-8-8-8-8-8-8--10-10-10-10-10-10-10-10-|

|-------------------------------------------------------------|      
|-------------------------------------------------------------|    
|-------------------------------------------------------------|    
|----5--5--5--5-----------------------------------------------|    
|----5--5--5--5-----------------------------------------------|    
|----5--5--5--5-----------------------------------------------|    

|-------------------------------------------------------------|    
|-------------------------------------------------------------|    
|-------------------------------------------------------------|    
|-------------------------------------------------------------|    
|---0-0-0-0-0-0-0-0--8-8-8-8-8-8-8-8--10-10-10-10-10-10-10-10-|    
|---0-0-0-0-0-0-0-0--8-8-8-8-8-8-8-8--10-10-10-10-10-10-10-10-|    
                                                                   
|-------------------------------------------------------------|      
|-------------------------------------------------------------|    
|-------------------------------------------------------------|    
|----5-5-5----3-3-3--------------10~--------------------------|    
|----5-5-5----3-3-3--------------10~--------------------------|    
|----5-5-5----3-3-3--------------10~--------------------------|  
              * * * 

Verse 2
1:27
|--------------------------------------------------------|
|--------------------------------------------------------|
|--------------------------------------------------------|
|--------------------------------------------------------|
|--------------------------------------------------------|
|--------------------------------------------------------|

1:41
|-------------------------------------------------------------|    
|-------------------------------------------------------------|    
|-------------------------------------------------------------|    
|---7-7-7-7-7-7-7-7-------------------------------------------|    x2
|---5-5-5-5-5-5-5-5--8-8-8-8-10-10-10-10--0-0--0--0-0--0--0---|    
|--------------------8-8-8-8-10-10-10-10--0-0--0--0-0--0--0---|
    * * * * * * * *  * * * * * * * *  *   *  *  * * *  *  *

Pre-chorus
1:56

Chorus
2:10
   

Bridge
2:23

|--------------------------------------------------------|
|--------------------------------------------------------|
|--------------------------------------------------------|
|---5--5--7--8--8--10-13----10--12----16-----------------|
|---3--3--5--6--6--8--11----8---10----14-----------------|
|--------------------------------------------------------|
       *  *     *   

Bridge pt. 2
2:51

|--------------------------------------------------------|
|--------------------------------------------------------|
|--------------------------------------------------------|
|--------------------------------------------------------|
|---0---0--2-3---3--5----8---5---7---11------------------|
|---0---0--2-3---3--5----8---5---7---11------------------|
        *  *     *

It sounds like a second guitar may be playing this an octave up
which would be:
|--------------------------------------------------------|
|--------------------------------------------------------|
|---------------------------------------13---------------|
|---7--7--9--10--10--12--15---12--13----11---------------|
|---5--5--7--8---8---10--13---10--11---------------------|
|--------------------------------------------------------|
       *  *      *   


Pre-chorus
3:18


Chorus
3:32




Добавлено: 28.07.2013
Другие материалы по этой песне:
  • Аккорды и текст

Страница создана 28.06.2012
http://primanota.ru/deathstars/motherzone-chords.htm
Привет, Гость.
Предлагаем пройти революционный курс по гитаре.
Подарок от PrimaNota.Ru, забирай!