PrimaNota.ru - самый крупный в мире бесплатный архив песенных текстов, аккордов, табулатур и нот


Deathstars - The Fuel Ignites - текст песни, таба, видео

Регистрация Запомнить меня
Войти через:  Facebook Google Twitter Vk Yandex Mail.ru

Deathstars - The Fuel Ignites - текст песни, таба, видео

Печатать
Просмотров: 116
-------------------------------------------------------------------------------
			     Deathstars - The Fuel Ignites
-------------------------------------------------------------------------------
Tabbed by: Filip Fisher

Tuning: Drop D (DADGBE) 




intro (0:19-0:33)

E|---------------------------------------------------------------------|
B|---------------------------------------------------------------------|
G|---------------------------------------------------------------------|
D|-5xx5...rhythm, well--1xx1...3...------------------------------------| 2X
A|-5xx5...figure it out-1xx1...3...------------------------------------|
D|-5xx5...on your own---1xx1...3...------------------------------------|
        
           

verse 1 - nothing



pre-chorus (1:00-1:13)

E|---------------------------------------------------------------------|
B|---------------------------------------------------------------------|
G|----5------------------5---------------------------------------------|
D|--1-5-3-5xx5...    --1-5-3-0-----------------------------------------|
A|--1-3-3-5xx5...then--1-3-3-0-----------------------------------------|
D|--1---3-5xx5...    --1---3-0-----------------------------------------|
        
                  

chorus (1:14-1:29)

E|---------------------------------------------------------------------|
B|---------------------------------------------------------------------|
G|---------------------------------------------------------------------|
D|-55555555-00000000-11111111-33333333---------------------------------| 
A|-55555555-00000000-11111111-33333333---------------------------------|
D|-55555555-00000000-11111111-33333333---------------------------------|

E|---------------------------------------------------------------------|
B|---------------------------------------------------------------------|
G|---------------------------------------------------------------------|
D|-55555555-00000000-11111111--x-33--x-33------------------------------| 
A|-55555555-00000000-11111111--x-33--x-33------------------------------|
D|-55555555-00000000-11111111--x-33--x-33------------------------------|



verse 2 (1:29-1:56)

E|---------------------------------------------------------------------|
B|---------------------------------------------------------------------|
G|---------------------------------------------------------------------|
D|-----------------5-------------------5-------------------------------|
A|-----------------5-------------------5-------------------------------|
D|-----------------5-------------------5-------------------------------|



pre-chorus (1:56-2:09)

E|---------------------------------------------------------------------|
B|---------------------------------------------------------------------|
G|----5------------------5---------------------------------------------|
D|--1-5-3-5xx5...    --1-5-3-0-----------------------------------------|
A|--1-3-3-5xx5...then--1-3-3-0-----------------------------------------|
D|--1---3-5xx5...    --1---3-0-----------------------------------------|



chorus (2:10-2:38)

E|---------------------------------------------------------------------|
B|---------------------------------------------------------------------|
G|---------------------------------------------------------------------|
D|-55555555-00000000-11111111-33333333---------------------------------|  <----- 
A|-55555555-00000000-11111111-33333333---------------------------------|        |
D|-55555555-00000000-11111111-33333333---------------------------------|        |
                                                                                |  2x
E|---------------------------------------------------------------------|        |
B|---------------------------------------------------------------------|        |
G|---------------------------------------------------------------------|  <-----
D|-55555555-00000000-11111111--x-33--x-33------------------------------| 
A|-55555555-00000000-11111111--x-33--x-33------------------------------|
D|-55555555-00000000-11111111--x-33--x-33------------------------------|



bridge [intro] (2:38-2:52)

E|---------------------------------------------------------------------|
B|---------------------------------------------------------------------|
G|---------------------------------------------------------------------|
D|-5xx5...    1xx1...3...----------------------------------------------| 2X
A|-5xx5...then1xx1...3...----------------------------------------------|
D|-5xx5...    1xx1...3...----------------------------------------------|



interlude - nothing



pre-chorus (3:06-3:18)

E|---------------------------------------------------------------------|
B|---------------------------------------------------------------------|
G|----5------------------5---------------------------------------------|
D|--1-5-3-5xx5...    --1-5-3-0-----------------------------------------|
A|--1-3-3-5xx5...then--1-3-3-0-----------------------------------------|
D|--1---3-5xx5...    --1---3-0-----------------------------------------|



chorus (3:19-3:48)

E|---------------------------------------------------------------------|
B|---------------------------------------------------------------------|
G|---------------------------------------------------------------------|
D|-55555555-00000000-11111111-33333333---------------------------------|  <----- 
A|-55555555-00000000-11111111-33333333---------------------------------|        |
D|-55555555-00000000-11111111-33333333---------------------------------|        |
                                                                                |  2x
E|---------------------------------------------------------------------|        |
B|---------------------------------------------------------------------|        |
G|---------------------------------------------------------------------|  <-----
D|-55555555-00000000-11111111--x-33--x-33------------------------------| 
A|-55555555-00000000-11111111--x-33--x-33------------------------------|
D|-55555555-00000000-11111111--x-33--x-33------------------------------|











IT MIGHT BE BETTER TO PLAY IT IN DROP C CAUSE OF THE COURSE





intro

D|---------------------------------------------------------------------|
A|---------------------------------------------------------------------|
F|---------------------------------------------------------------------|
C|-7xX7...rhythm, well--3xx3...5...------------------------------------|
G|-7xx7...figure it out-3xx3...5...------------------------------------|
C|-7XX7...on your own---3xx3...5...------------------------------------|
        


verse 1 - nothing



pre-chorus

D|---------------------------------------------------------------------|
A|---------------------------------------------------------------------|
F|----7------------------7---------------------------------------------|
C|--3-7-5-7xx7...    --3-7-5-2-----------------------------------------|
G|--3-5-5-7xx7...then--3-5-5-2-----------------------------------------|
C|--3---5-7xx7...    --3---5-2-----------------------------------------|



chorus

D|---------------------------------------------------------------------|
A|---------------------------------------------------------------------|
F|---------------------------------------------------------------------|
C|-77777777-22222222-33333333-55555555---------------------------------| 
G|-77777777-22222222-33333333-55555555---------------------------------|
C|-77777777-22222222-33333333-55555555---------------------------------|



verse 2

D|---------------------------------------------------------------------|
A|---------------------------------------------------------------------|
F|---------------------------------------------------------------------|
C|-----------------7-------------------7-------------------------------|
G|-----------------7-------------------7-------------------------------|
C|-----------------7-------------------7-------------------------------|



Добавлено: 17.09.2013
Другие материалы по этой песне:
  • Аккорды и текст

Страница создана 17.09.2013
http://primanota.ru/deathstars/the-fuel-ignites-chords.htm
Привет, Гость.
Предлагаем пройти революционный курс по гитаре.
Подарок от PrimaNota.Ru, забирай!