PrimaNota.ru - самый крупный в мире бесплатный архив песенных текстов, аккордов, табулатур и нот


Deathstars - Virtue To Vice - текст песни, таба, перевод, видео

Регистрация Запомнить меня
Войти через:  Facebook Google Twitter Vk Yandex Mail.ru

Deathstars - Virtue To Vice - текст песни, таба, перевод, видео

Печатать
Просмотров: 242
=====================================================
                 "Virtue to Vice"

                    Deathstars
                Termination Bliss

=====================================================

Tabbed By: John Moores
           mooresjw@email.uc.edu


Tuning: Drop C (CGCFAD)

Legend:

Intro (on piano)


Riff 1
0:13
|--------------------------------------------------|
|--------------------------------------------------|
|--------------------------------------------------|
|--------------------------------------------------| 
|--0----0-0------0----0-0-----5---5-5----8--10-----|
|--0----0-0------0----0-0-----5---5-5----8--10-----|
        * *           * *         * *       


Riff 2
0:25
|--------------------------------------------------|
|--------------------------------------------------|
|--------------------------------------------------|
|--------------------------------------------------|
|-/3\-0--0--0-0--0-0--0-0-----0--0--0-0--0-0--0-0--|
|-/3\-0--0--0-0--0-0--0-0---0-0--0--0-0--0-0--0-0--|
            * *  * *  * *   *       * *  * *  * *


|--------------------------------------------------|
|--------------------------------------------------|
|--------------------------------------------------|
|--------------------------------------------------|
|---5--5--5-5--5-5--5-5-----8---8---10----10-----5-|
|-0-5--5--5-5--5-5--5-5---5-8---8---10----10-----5-|
  *       * *  * *  * *   *


Verse 1
0:39


0:55
|--------------------------------------------------|
|--------------------------------------------------|
|--------------------------------------------------|
|--------------------------------------------------|
|--0--0-0-0----2--2-2--2--22-3--3-3-3----5--5-5--5-|
|--0--0-0-0----2--2-2--2--22-3--3-3-3----5--5-5--5-|
      * * *         *     **    * * *         *


|--------------------------------------------------|
|--------------------------------------------------|
|--------------------------------------------------|
|--------------------------------------------------|
|--0--0-0-0----2--2-2--2--22-3--3-3-3----8--8-8--8-|
|--0--0-0-0----2--2-2--2--22-3--3-3-3----8--8-8--8-|
      * * *         *     **    * * *         *

Chorus
1:09
|--------------------------------------------------|
|--------------------------------------------------|
|--------------------------------------------------|
|--------------------------------------------------|
|-----0--0--0-0--0-0--0-0-----0--0--0-0--0-0--0-0--|
|-----0--0--0-0--0-0--0-0---0-0--0--0-0--0-0--0-0--|
            * *  * *  * *   *       * *  * *  * *


|--------------------------------------------------|
|--------------------------------------------------|
|--------------------------------------------------|
|--------------------------------------------------|
|---5--5--5-5--5-5--5-5-----8---8---10----10-------|
|-0-5--5--5-5--5-5--5-5---5-8---8---10----10-------|
  *       * *  * *  * *   *



Verse 2
1:21



1:33
|--------------------------------------------------|
|--------------------------------------------------|
|--------------------------------------------------|
|--------------------------------------------------|
|--0--0-0-0----2--2-2--2--22-3--3-3-3----5--5-5--5-|
|--0--0-0-0----2--2-2--2--22-3--3-3-3----5--5-5--5-|
      * * *         *     **    * * *         *

|--------------------------------------------------|
|--------------------------------------------------|
|--------------------------------------------------|
|--------------------------------------------------|
|--0--0-0-0----2--2-2--2--22-3--3-3-3----8--8-8--8-|
|--0--0-0-0----2--2-2--2--22-3--3-3-3----8--8-8--8-|
      * * *         *     **    * * *         *



Chorus
1:46
|--------------------------------------------------|
|--------------------------------------------------|
|--------------------------------------------------|
|--------------------------------------------------|
|-----0--0--0-0--0-0--0-0-----0--0--0-0--0-0--0-0--|
|-----0--0--0-0--0-0--0-0---0-0--0--0-0--0-0--0-0--|
            * *  * *  * *   *       * *  * *  * *


|--------------------------------------------------|
|--------------------------------------------------|
|--------------------------------------------------|
|--------------------------------------------------|
|---5--5--5-5--5-5--5-5-----8---8---10----10-------|
|-0-5--5--5-5--5-5--5-5---5-8---8---10----10-------|
  *       * *  * *  * *   *




Bridge
2:00

|--------------------------------------------------|
|--------------------------------------------------|
|--------------------------------------------------|
|--------------------------------------------------| 
|--0----0-0------5----5-5-----12---12-12----10--7--|
|--0----0-0------5----5-5-----12---12-12----10--7--|
        * *           * *           * *       

|--------------------------------------------------|
|--------------------------------------------------|
|--------------------------------------------------|
|--------------------------------------------------| 
|--0--0-0--0-0--0-----5--5-5--5-5--5-5-------------|
|--0--0-0--0-0--0-0---5--5-5--5-5--5-5-------------|
      * *  * *  * *      * *  * *  * *

|--------------------------------------------------|
|--------------------------------------------------|
|--------------------------------------------------|
|--------------------------------------------------| 
|---12--12-12--12-12--12-12--------10--------------|
|-5-12--12-12--12-12--12-12-----12-10-----7-7-7----|
  *      *  *   *  *   *  *     *         * * *


2:27



2:54
|--------------------------------------------------|
|--------------------------------------------------|
|--------------------------------------------------|
|--------------------------------------------------|
|--0--0-0-0----2--2-2--2--22-3--3-3-3----5--5-5--5-|
|--0--0-0-0----2--2-2--2--22-3--3-3-3----5--5-5--5-|
      * * *         *     **    * * *         *  

|--------------------------------------------------|
|--------------------------------------------------|
|--------------------------------------------------|
|--------------------------------------------------|
|--0--0-0-0----2--2-2--2--22-8--8-8-8----7--7-7--7-|
|--0--0-0-0----2--2-2--2--22-8--8-8-8----7--7-7--7-|
      * * *         *     **    * * *         *



|--------------------------------------------------|
|--------------------------------------------------|
|--------------------------------------------------|
|--------------------------------------------------|
|--0--0-0-0----2--2-2--2--22-3--3-3-3----5--5-5--5-|
|--0--0-0-0----2--2-2--2--22-3--3-3-3----5--5-5--5-|
      * * *         *     **    * * *         *

|--------------------------------------------------|
|--------------------------------------------------|
|--------------------------------------------------|
|--------------------------------------------------|
|--0--0-0-0----2--2-2--2--22-3--3-3-3----8--8-8--8-|
|--0--0-0-0----2--2-2--2--22-3--3-3-3----8--8-8--8-|
      * * *         *     **    * * *         *


3:20
|--------------------------------------------------|
|--------------------------------------------------|
|--------------------------------------------------|
|--------------------------------------------------|
|-/3\-0--0--0-0--0-0--0-0-----0--0--0-0--0-0--0-0--|
|-/3\-0--0--0-0--0-0--0-0---0-0--0--0-0--0-0--0-0--|
            * *  * *  * *   *       * *  * *  * *


|--------------------------------------------------|
|--------------------------------------------------|
|--------------------------------------------------|
|--------------------------------------------------|
|---5--5--5-5--5-5--5-5-----8---8---10----10-------|
|-0-5--5--5-5--5-5--5-5---5-8---8---10----10-------|
  *       * *  * *  * *   *


3:33
|--------------------------------------------------|
|--------------------------------------------------|
|--------7-----------------------------------------|
|--5-----7-----------------------------------------|
|--5-----5-----0-0---------------------------------|
|--5-----------0-0---------------------------------|
         ^     * *
         ^
         lightly (maybe decreased volume)
Добавлено: 25.06.2013
Другие материалы по этой песне:

Страница создана 03.04.2012
http://primanota.ru/deathstars/virtue-to-vice-chords.htm
Привет, Гость.
Предлагаем пройти революционный курс по гитаре.
Подарок от PrimaNota.Ru, забирай!