PrimaNota.ru - самый крупный в мире бесплатный архив песенных текстов, аккордов, табулатур и нот


Deathstars - New Dead Nation - текст песни, таба, видео

Регистрация Запомнить меня
Войти через:  Facebook Google Twitter Vk Yandex Mail.ru

Deathstars - New Dead Nation - текст песни, таба, видео

Печатать
Просмотров: 127
===========================================================

                       New Dead Nation
===========================================================

By:  Deathstars
Album: Synthetic Generation

Tabbed by: John Moores
mooresjw@email.uc.edu



Drop C Tuning (CGCFAD)

* = Palm Mute
@ = Pinched harmonic
x = muted

Intro/Main Riff
0:06

|-------|------------------------------------------|
|-------|------------------------------------------|
|-------|------------------------------------------|
|---\---|----------0--------------1----------------| x8
|---\---|-----0-0--0--------------1----------------|
|---\---|-----0-0--0--00000---00--1----------------|
              * *     ****    **


Verse 1
0:21

|-------------------------------------------------|
|-------------------------------------------------|
|------Nothing is played--------------------------|
|----------------during the verse-----------------|
|-------------------------------------------------|
|-------------------------------------------------|


Pre-chorus
0:34

|-------------------------------------------------|
|-------------------------------------------------|
|-------------------------------------------------|
|----5------8--------1----------------------------|
|----5----7-8---11---1----------------------------|
|----5----7-8---11---1-0-0-00000--1-1-0-0--00000--|
                       * * ****       * *  *****

|-------------------------------------------------|
|-------------------------------------------------|
|-------------------------------------------------|
|----5------8---5---7---------7-7---7-------------|
|----5----7-8---5---7---------7-7---7-------------|
|----5----7-8---5---7---------7-7---7-------------|


Chorus
0:49

|-------------------------------------------------|
|-------------------------------------------------|
|-------------------------------------------------|
|---0---------8--------------0--------------------|
|---0---------8-------5------0--------------------|
|---0---------8-------5------0--------------------|


|------------------------------------------|
|------------------------------------------|
|------------------------------------------|
|------8-----------7-----------------------|
|------8-------5---7---0--3p1--------------|
|------8-------5---7---0--3p1--------------|
                       *  *

1:01
|------------------------------------------|
|------------------------------------------|
|------------------------------------------|
|----------0--------------1----------------| x8
|-----0-0--0--------------1----------------|
|-----0-0--0--00000---00--1----------------|
      * *     ****    **

Verse 2
1:15

|-------------------------------------------------|
|-------------------------------------------------|
|------Nothing is played--------------------------|
|----------------during the verse-----------------|
|-------------------------------------------------|
|-------------------------------------------------|

Pre-chorus
1:29

|-------------------------------------------------|
|-------------------------------------------------|
|-------------------------------------------------|
|----5------8--------1----------------------------|
|----5----7-8---11---1----------------------------|
|----5----7-8---11---1-0-0-00000--1-1-0-0--00000--|
                       * * ****       * *  *****

|-------------------------------------------------|
|-------------------------------------------------|
|-------------------------------------------------|
|----5------8---5---7---------7-7---7-------------|
|----5----7-8---5---7---------7-7---7-------------|
|----5----7-8---5---7---------7-7---7-------------|


Chorus
1:42

|------------------------------------------|
|------------------------------------------|
|------------------------------------------|
|---0---------8--------------0-------------|
|---0---------8-------5------0-------------|
|---0---------8-------5------0-------------|
                                              x2
|------------------------------------------|
|------------------------------------------|
|------------------------------------------|
|------8-----------7-----------------------|
|------8-------5---7---0--3p1--------------|
|------8-------5---7---0--3p1--------------|
                       *  *

2:10
|------------------------------------------|
|------------------------------------------|
|------------------------------------------|
|----------0--------------1----------------| x6
|-----0-0--0--------------1----------------|
|-----0-0--0--00000---00--1----------------|
      * *     ****    **

Final Time
|------------------------------------------|
|------------------------------------------|
|------------------------------------------|
|----------0--------------1------0-0---0---|
|-----0-0--0--------------1------0-0---0---|
|-----0-0--0--00000---00--1------0-0---0---|
      * *     ****    **

Chorus
2:51

|------------------------------------------|
|------------------------------------------|
|------------------------------------------|
|---0---------8--------------0-------------|
|---0---------8-------5------0-------------|
|---0---------8-------5------0-------------|
                                              x3
|------------------------------------------|
|------------------------------------------|
|------------------------------------------|
|------8-----------7-----------------------|
|------8-------5---7---0--3p1--------------|
|------8-------5---7---0--3p1--------------|
                       *  *

3:32
|------------------------------------------|
|------------------------------------------|
|------------------------------------------|
|-------8------5--5--5---------------------|
|-------8------5--5--5---------------------|
|-------8------5--5--5---------------------|

Добавлено: 09.08.2013
Другие материалы по этой песне:
  • Аккорды и текст

Страница создана 08.05.2012
http://primanota.ru/deathstars/new-dead-nation-chords.htm
Привет, Гость.
Предлагаем пройти революционный курс по гитаре.
Подарок от PrimaNota.Ru, забирай!