PrimaNota.ru - самый крупный в мире бесплатный архив песенных текстов, аккордов, табулатур и нот


Deathstars - Termination Bliss - текст песни, таба, бас-таба, видео

Регистрация Запомнить меня
Войти через:  Facebook Google Twitter Vk Yandex Mail.ru

Deathstars - Termination Bliss - текст песни, таба, бас-таба, видео

Печатать
Просмотров: 192
=================================================================================

			Termination Bliss
=================================================================================

By:  Deathstars
Album: Termination Bliss

Tabbed by: John Moores
mooresjw@email.uc.edu



Drop C Tuning (CGCFAD)

* = Palm Mute
@ = Pinched harmonic
x = muted


Intro/Verse
0:13
|---------------------------------------------------------|
|---------------------------------------------------------|
|---------------------------------------------------------|
|---------------------4---------------------------9--7--9-| x4
|---4-4---4-2-4--0-0--2--2--4-4--4-2-4--0--0-0-0--9--7--9-|
|---4-4---4-2-4--0-0-----2--4-4--4-2-4--0--0-0-0--9--7--9-|
    * *   * * *  * *  *  *  * *  * * *  *  * * *  *  *  *

Chorus
0:41
|---------------------------------------------------------|
|---------------------------------------------------------|
|-------------------4---------------------4---------------|
|--0----4-----2-----4------0----4----2----4---------------|
|--0----4-----2-----2------0----4----2----2---------------|
|--0----4-----2------------0----4----2--------------------|


Verse 2
1:00
|---------------------------------------------------------|
|---------------------------------------------------------|
|---------------------------------------------------------|
|---------------------4---------------------------9--7--9-| x3
|---4-4---4-2-4--0-0--2--2--4-4--4-2-4--0--0-0-0--9--7--9-|
|---4-4---4-2-4--0-0-----2--4-4--4-2-4--0--0-0-0--9--7--9-|
    * *   * * *  * *  *  *  * *  * * *  *  * * *  *  *  *

Chorus
1:29
|---------------------------------------------------------|
|---------------------------------------------------------|
|-------------------4---------------------4---------------|
|--0----4-----2-----4------0----4----2----4---------------|
|--0----4-----2-----2------0----4----2----2---------------|
|--0----4-----2------------0----4----2--------------------|


Bridge
1:50
|---------------------------------------------------------|
|---------------------------------------------------------|
|---------------------------------------------------------|
|-------------------------9-9---9--11-9--7-7--7-7-7-------| x2
|---9--9---9-7--4-4--4-7--7-7---7--9--7--5-5--5-5-5-------|
|---9--9---9-7--4-4--4-7----------------------------------|
    *  *   * *  * *  * *  * *   *  *  *  * *  * * * 


Verse 3
2:08
|---------------------------------------------------------|
|---------------------------------------------------------|
|---------------------------------------------------------|
|---------------------------------------------------------|
|---4-4---------0-0------4-4------------------------------|
|---4-4---------0-0------4-4------------------------------|
    * *         * *      * * 


|---------------------------------------------------------|
|---------------------------------------------------------|
|---------------------------------------------------------|
|---------------------4-----------------------9-9-9--7-7--| 
|---4-4---4-2-4--0-0--2--2--4-4-----0--0-0-0--9-9-9--7-7--|
|---4-4---4-2-4--0-0-----2--4-4-----0--0-0-0--9-9-9--7-7--|
    * *   * * *  * *  *  *  * *     *  * * *  * * *  * *

Chorus
2:27

|---------------------------------------------------------|
|---------------------------------------------------------|
|-------------------4---------------------4---------------|
|--0----4-----2-----4------0----4----2----4---------------|
|--0----4-----2-----2------0----4----2----2---------------|
|--0----4-----2------------0----4----2--------------------|


|---------------------------------------------------------|
|---------------------------------------------------------|
|-------------------4-------------------------------------|
|--0----4-----2-----4------0----4----2----4-4-4-4---------|
|--0----4-----2-----2------0----4----2----2-2-2-2---------|
|--0----4-----2------------0----4----2--------------------|
                                          * * * *


Добавлено: 01.08.2013
Другие материалы по этой песне:
  • Аккорды и текст

Страница создана 30.05.2012
http://primanota.ru/deathstars/termination-bliss-chords.htm
Привет, Гость.
Предлагаем пройти революционный курс по гитаре.
Подарок от PrimaNota.Ru, забирай!