PrimaNota.ru - самый крупный в мире бесплатный архив песенных текстов, аккордов, табулатур и нот


Deathstars - Our God The Drugs - текст песни, таба, видео

Регистрация Запомнить меня
Войти через:  Facebook Google Twitter Vk Yandex Mail.ru

Deathstars - Our God The Drugs - текст песни, таба, видео

Печатать
Просмотров: 119
Deathstars-Our god the drugs

Drop D


Intro:

   |-------------------|-----------------------|
   |-------------------|-----------------------|
   |-------------------|-----------------------|
   |-------------------|-----------------------|
   |9~-----------------|5~---------------------|
   |9~-----------------|5~---------------------|


   |-------------------|-----------------------|
   |-------------------|-----------------------|
   |-------------------|-----------------------|
   |-------------------|-----------------------|
   |2~-----------------|5~---------8~----------|
   |2~-----------------|5~---------8~----------|



   |-------------------|-------------------|
   |-------------------|-------------------|
   |-------------------|-------------------|
   |-------------------|-------------------|
   |9-9----9----9----9-|9-9----9----9----9-|
   |9-9-00-9-00-9-00-9-|9-9-00-9-00-9-00-9-|
 PM     ..   ..   ..        ..   ..   ..


   |-------------------|-------------------|
   |-------------------|-------------------|
   |-------------------|-------------------|
   |-------------------|-------------------|
   |5-5----5----5----5-|2-2----2----5-00-8-|
   |5-5-00-5-00-5-00-5-|2-2-00-2-00-5-00-8-|
 PM     ..   ..   ..        ..   ..   .. 

   
   
   |-------------------|-------------------|
   |-------------------|-------------------|
   |-------------------|-------------------|
   |-------------------|-------------------|
   |9-9----9----9----9-|9-9----9----9----9-|
   |9-9-00-9-00-9-00-9-|9-9-00-9-00-9-00-9-|
 PM     ..   ..   ..        ..   ..   ..


   |-------------------|-------------------|
   |-------------------|-------------------|
   |-------------------|-------------------|
   |-------------------|-------------------|
   |5-5----5----5----5-|2-2----2----5-00-8-|
   |5-5-00-5-00-5-00-5-|2-2-00-2-00-5-00-8-|
 PM     ..   ..   ..        ..   ..   .. 


Verse:
   |----------------|----------------------|
   |----------------|----------------------|
   |----------------|----------------------|
   |----------------|----------------------|
   |----------------|----------------------|
   |9-9-9-9-9-9-9-9-|9-9-9-9-9-9-9-9-------|   
 PM . . . . . . . . . . . . . . . .


   |----------------|----------------------|
   |----------------|----------------------|
   |----------------|----------------------|
   |----------------|----------------------|
   |----------------|----------------------|
   |5-5-5-5-5-5-5-5-|2-2-2-2-2-5-5-8-------|   
 PM . . . . . . . . . . . . . . . .  


   |----------------|----------------------|
   |----------------|----------------------|
   |----------------|----------------------|
   |----------------|----------------------|
   |----------------|----------------------|
   |9-9-9-9-9-9-9-9-|9-9-9-9-9-9-9-9-------|   
 PM . . . . . . . . . . . . . . . .


   |----------------|----------------------|
   |----------------|----------------------|
   |----------------|----------------------|
   |----------------|----------------------|
   |----------------|----------------------|
   |5-5-5-5-5-5-5-5-|2-2-2-2-2-5-5-8-------|   
 PM . . . . . . . . . . . . . . . .  


   |----------------|----------------------|
   |----------------|----------------------|
   |----------------|----------------------|
   |----------------|----------------------|
   |----------------|----------------------|
   |9-9-9-9-9-9-9-9-|9-9-9-9-9-9-9-9-------|   
 PM . . . . . . . . . . . . . . . .


   |----------------|----------------------|
   |----------------|----------------------|
   |----------------|----------------------|
   |----------------|----------------------|
   |----------------|----------------------|
   |5-5-5-5-5-5-5-5-|2-2-2-2-2-5-5-8-------|   
 PM . . . . . . . . . . . . . . . .  


   |----------------|----------------------|
   |----------------|----------------------|
   |----------------|----------------------|
   |----------------|----------------------|
   |----------------|----------------------|
   |9-9-9-9-9-9-9-9-|9-9-9-9-9-9-9-9-------|   
 PM . . . . . . . . . . . . . . . .


   |----------------|----------------------|
   |----------------|----------------------|
   |----------------|----------------------|
   |----------------|----------------------|
   |----------------|2---------------------|
   |5-5-5-5-5-5-5-5-|2---------------------|   
 PM . . . . . . . .   


  
Chorus:

   |-------------------|-------------------|
   |-------------------|-------------------|
   |-------------------|-------------------|
   |-------------------|-------------------|
   |9-9----9----9----9-|9-9----9----9----9-|
   |9-9-00-9-00-9-00-9-|9-9-00-9-00-9-00-9-|
 PM     ..   ..   ..        ..   ..   ..


   |-------------------|-------------------|
   |-------------------|-------------------|
   |-------------------|-------------------|
   |-------------------|-------------------|
   |5-5----5----5----5-|2-2----2----5/8/---|
   |5-5-00-5-00-5-00-5-|2-2-00-2-00-5/8/---|
 PM     ..   ..   ..        ..   ..    

   
   
   |-------------------|-------------------|
   |-------------------|-------------------|
   |-------------------|-------------------|
   |-------------------|-------------------|
   |9-9----9----9----9-|9-9----9----9----9-|
   |9-9-00-9-00-9-00-9-|9-9-00-9-00-9-00-9-|
 PM     ..   ..   ..        ..   ..   ..


   |-------------------|-------------------|
   |-------------------|-------------------|
   |-------------------|-------------------|
   |-------------------|-------------------|
   |5-5----5----5----5-|2-2----2----5/8----|
   |5-5-00-5-00-5-00-5-|2-2-00-2-00-5/8----|
 PM     ..   ..   ..        ..   ..    


Verse:
   |----------------|----------------------|
   |----------------|----------------------|
   |----------------|----------------------|
   |----------------|----------------------|
   |----------------|----------------------|
   |9-9-9-9-9-9-9-9-|9-9-9-9-9-9-9-9-------|   
 PM . . . . . . . . . . . . . . . .


   |----------------|----------------------|
   |----------------|----------------------|
   |----------------|----------------------|
   |----------------|----------------------|
   |----------------|----------------------|
   |5-5-5-5-5-5-5-5-|2-2-2-2-2-5-5-8-------|   
 PM . . . . . . . . . . . . . . . .  


   |----------------|----------------------|
   |----------------|----------------------|
   |----------------|----------------------|
   |----------------|----------------------|
   |----------------|----------------------|
   |9-9-9-9-9-9-9-9-|9-9-9-9-9-9-9-9-------|   
 PM . . . . . . . . . . . . . . . .


   |----------------|----------------------|
   |----------------|----------------------|
   |----------------|----------------------|
   |----------------|----------------------|
   |----------------|----------------------|
   |5-5-5-5-5-5-5-5-|2-2-2-2-2-5-5-8-------|   
 PM . . . . . . . . . . . . . . . .  


   |----------------|----------------------|
   |----------------|----------------------|
   |----------------|----------------------|
   |----------------|----------------------|
   |----------------|----------------------|
   |9-9-9-9-9-9-9-9-|9-9-9-9-9-9-9-9-------|   
 PM . . . . . . . . . . . . . . . .


   |----------------|----------------------|
   |----------------|----------------------|
   |----------------|----------------------|
   |----------------|----------------------|
   |----------------|----------------------|
   |5-5-5-5-5-5-5-5-|2-2-2-2-2-5-5-8-------|   
 PM . . . . . . . . . . . . . . . .  


   |----------------|----------------------|
   |----------------|----------------------|
   |----------------|----------------------|
   |----------------|----------------------|
   |----------------|----------------------|
   |9-9-9-9-9-9-9-9-|9-9-9-9-9-9-9-9-------|   
 PM . . . . . . . . . . . . . . . .


   |----------------|----------------------|
   |----------------|----------------------|
   |----------------|----------------------|
   |----------------|----------------------|
   |----------------|2---------------------|
   |5-5-5-5-5-5-5-5-|2---------------------|   
 PM . . . . . . . .   


Chorus:

   |-------------------|-------------------|
   |-------------------|-------------------|
   |-------------------|-------------------|
   |-------------------|-------------------|
   |9-9----9----9----9-|9-9----9----9----9-|
   |9-9-00-9-00-9-00-9-|9-9-00-9-00-9-00-9-|
 PM     ..   ..   ..        ..   ..   ..


   |-------------------|-------------------|
   |-------------------|-------------------|
   |-------------------|-------------------|
   |-------------------|-------------------|
   |5-5----5----5----5-|2-2----2----5/8/---|
   |5-5-00-5-00-5-00-5-|2-2-00-2-00-5/8/---|
 PM     ..   ..   ..        ..   ..    

   
   
   |-------------------|-------------------|
   |-------------------|-------------------|
   |-------------------|-------------------|
   |-------------------|-------------------|
   |9-9----9----9----9-|9-9----9----9----9-|
   |9-9-00-9-00-9-00-9-|9-9-00-9-00-9-00-9-|
 PM     ..   ..   ..        ..   ..   ..


   |-------------------|-------------------|
   |-------------------|-------------------|
   |-------------------|-------------------|
   |-------------------|-------------------|
   |5-5----5----5----5-|2-2----2----5/8----|
   |5-5-00-5-00-5-00-5-|2-2-00-2-00-5/8----|
 PM     ..   ..   ..        ..   ..    


before the solo starts
(nearly the same as the chorus):


   |-------------------|-------------------|
   |-------------------|-------------------|
   |-------------------|-------------------|
   |-------------------|-------------------|
   |9-9----9----9----9-|9-9----9----9----9-|
   |9-9----9----9----9-|9-9----9----9----9-|
 


   |-------------------|-------------------|
   |-------------------|-------------------|
   |-------------------|-------------------|
   |-------------------|-------------------|
   |5-5----5----5----5-|2-2----2----5---8--|
   |5-5----5----5----5-|2-2----2----5---8--|
    
   
   
   |-------------------|-------------------|
   |-------------------|-------------------|
   |-------------------|-------------------|
   |-------------------|-------------------|
   |9-9----9----9----9-|9-9----9----9----9-|
   |9-9----9----9----9-|9-9----9----9----9-|
 


   |-------------------|-------------------|
   |-------------------|-------------------|
   |-------------------|-------------------|
   |-------------------|-------------------|
   |5-5----5----5----5-|2-2----2----5---8--|
   |5-5----5----5----5-|2-2----2----5---8--|


Solo: I'm sorry



Chorus:

   |-------------------|-------------------|
   |-------------------|-------------------|
   |-------------------|-------------------|
   |-------------------|-------------------|
   |9-9----9----9----9-|9-9----9----9----9-|
   |9-9-00-9-00-9-00-9-|9-9-00-9-00-9-00-9-|
 PM     ..   ..   ..        ..   ..   ..


   |-------------------|-------------------|
   |-------------------|-------------------|
   |-------------------|-------------------|
   |-------------------|-------------------|
   |5-5----5----5----5-|2-2----2----5/8/---|
   |5-5-00-5-00-5-00-5-|2-2-00-2-00-5/8/---|
 PM     ..   ..   ..        ..   ..    

   
   
   |-------------------|-------------------|
   |-------------------|-------------------|
   |-------------------|-------------------|
   |-------------------|-------------------|
   |9-9----9----9----9-|9-9----9----9----9-|
   |9-9-00-9-00-9-00-9-|9-9-00-9-00-9-00-9-|
 PM     ..   ..   ..        ..   ..   ..


   |-------------------|-------------------|
   |-------------------|-------------------|
   |-------------------|-------------------|
   |-------------------|-------------------|
   |5-5----5----5----5-|2-2----2----5/8----|
   |5-5-00-5-00-5-00-5-|2-2-00-2-00-5/8----|
 PM     ..   ..   ..        ..   ..    


   |-------------------|-------------------|
   |-------------------|-------------------|
   |-------------------|-------------------|
   |-------------------|-------------------|
   |9-9----9----9----9-|9-9----9----9----9-|
   |9-9-00-9-00-9-00-9-|9-9-00-9-00-9-00-9-|
 PM     ..   ..   ..        ..   ..   ..


   |-------------------|-------------------|
   |-------------------|-------------------|
   |-------------------|-------------------|
   |-------------------|-------------------|
   |5-5----5----5----5-|2-2----2----5/8/---|
   |5-5-00-5-00-5-00-5-|2-2-00-2-00-5/8/---|
 PM     ..   ..   ..        ..   ..    

   
   
   |-------------------|-------------------|
   |-------------------|-------------------|
   |-------------------|-------------------|
   |-------------------|-------------------|
   |9-9----9----9----9-|9-9----9----9----9-|
   |9-9-00-9-00-9-00-9-|9-9-00-9-00-9-00-9-|
 PM     ..   ..   ..        ..   ..   ..


   |-------------------|-------------------|
   |-------------------|-------------------|
   |-------------------|-------------------|
   |-------------------|-------------------|
   |5-5----5----5----5-|2-2----2----5/8----|
   |5-5-00-5-00-5-00-5-|2-2-00-2-00-5/8----|
 PM     ..   ..   ..        ..   ..    


   |-------------------|-------------------|
   |-------------------|-------------------|
   |-------------------|-------------------|
   |-------------------|-------------------|
   |9~-----------------|-------------------|
   |9~-----------------|-------------------|

by  D-Knot 

thank you for using this tab ;)
Добавлено: 11.08.2013
Другие материалы по этой песне:

Страница создана 25.04.2012
http://primanota.ru/deathstars/our-god-the-drugs-chords.htm
Привет, Гость.
Предлагаем пройти революционный курс по гитаре.
Подарок от PrimaNota.Ru, забирай!