PrimaNota.ru - самый крупный в мире бесплатный архив песенных текстов, аккордов, табулатур и нот


Deathstars - Death In Vogue - текст песни, таба, видео

Регистрация Запомнить меня
Войти через:  Facebook Google Twitter Vk Yandex Mail.ru

Deathstars - Death In Vogue - текст песни, таба, видео

Печатать
Просмотров: 140
=================================================================================

			Death in Vogue
=================================================================================

By:  Deathstars
Album: Termination Bliss

Tabbed by: John Moores
mooresjw@email.uc.edu

Drop C Tuning (CGCFAD)

* = Palm Mute
@ = Pinched harmonic
x = muted


Intro.

0:09

|-------------------------------------------------------|
|-------------------------------------------------------|
|-------------------------------------------------------|
|------5---7-------------5---7----8---7---0-------------|
|------3---5-------------3---5----8---7---0-------------|
|----------0-----------------0----8---7---0-------------|

0:24

|----------------------------------------------------------------------|
|----------------------------------------------------------------------|
|----------------------------------------------------------------------|
|----------------------------------------------------------------------|  x2
|-----\-0-0-----0----0--0-0-0---0--0----8-8--8--8-----5-5---5--5-------|
|-----\-0-0-----0----0--0-0-0---0--0----8-8--8--8-----5-5---5--5---3@--|


Verse 1

0:38

|--------------------------------------------------|
|--------------------------------------------------|
|--------------------------------------------------|
|--------------------------------------------------| x2
|----0-0-------------------------------------------|
|----0-0-------------------------------------------|


0:53

|-----------------------------------------------------------------------|
|-----------------------------------------------------------------------|
|-----------------------------------------------------------------------|
|-----------------------------------------------------------------------|  x2
|-----\-0-0-----0----0--0-0-0---0--0----8-8--8--8-----5-5---5--5--------|
|-----\-0-0-----0----0--0-0-0---0--0----8-8--8--8-----5-5---5--5---3@---|

Verse 2

1:06

|--------------------------------------------------|
|--------------------------------------------------|
|--------------------------------------------------|
|--------------------------------------------------| x2
|----0-0----------8-8------------------------------|
|----0-0----------8-8------------------------------|

1:21

|-----------------------------------------------------------------------|
|-----------------------------------------------------------------------|
|-----------------------------------------------------------------------|
|-----------------------------------------------------------------------|  x2
|-----\-0-0-----0----0--0-0-0---0--0----8-8--8--8-----5-5---5--5--------|
|-----\-0-0-----0----0--0-0-0---0--0----8-8--8--8-----5-5---5--5---3@---|

1:37

(this is really only the bass playing this...)
|--------------------------------------------------|
|--------------------------------------------------|
|--------------------------------------------------|
|--------------------------------------------------| x2
|----0-----3------8-----5--------------------------|
|----0-----3------8-----5--------------------------|


Verse 3

1:50


|--------------------------------------------------|
|--------------------------------------------------|
|--------------------------------------------------|
|--------------------------------------------------| x2
|----0-0----------8-8------------------------------|
|----0-0----------8-8------------------------------|


2:05

|---------------------------------------------------------------------|
|---------------------------------------------------------------------|
|---------------------------------------------------------------------|
|---------------------------------------------------------------------|  x2
|--\-0-0----0----0--0-0-0---0--0----8-8--8--8-----5-5---5--5----------|
|--\-0-0----0----0--0-0-0---0--0----8-8--8--8-----5-5---5--5---3@-----|


2:20

|--------------------------------------------------|
|--------------------------------------------------|
|--------------------------------------------------|
|--------------------------------------------------| x2
|----0-----3------8-----5--------------------------|
|----0-----3------8-----5--------------------------|


|--------------------------------------------------|
|--------------------------------------------------|
|--------------------------------------------------|
|--------------------------------------------------| x2
|----0-----3------8-----5--------------------------|
|----0-----3------8-----5-------8--7--5------------|
                                *  *  *

2:51

|--------------------------------------------------|
|--------------------------------------------------|
|--------------------------------------------------|
|--------------------------------------------------| x3
|----8-8--8--7--0-0--0-0----12--10---10-10---7-----|
|----8-8--8--7--0-0--0-0----12--10---10-10---7-----|


|--------------------------------------------------|
|--------------------------------------------------|
|--------------------------------------------------|
|--------------------------------------------------|
|----8-8--8--7--0-0--0-0----12--10---10-10---7---5-|
|----8-8--8--7--0-0--0-0----12--10---10-10---7---5-|


Verse 4
3:24


|--------------------------------------------------|
|--------------------------------------------------|
|--------------------------------------------------|
|--------------------------------------------------|
|----0-------3--------8------3-5-------------------|
|----0-------3--------8------3-5-------------------|


|--------------------------------------------------|
|--------------------------------------------------|
|--------------------------------------------------|
|--------------------------------------------------| x3
|----0-----3------8-----5--------------------------|
|----0-----3------8-----5-------8--7--5------------|
                                *  *  *

End
4:06

|--------------------------------------------------|
|--------------------------------------------------|
|-----------------5---7----------------------------|
|---1-------------5---7----------------------------|
|---1-------------3---5----------------------------|
|---1----------------------------------------------|
Добавлено: 13.06.2013
Другие материалы по этой песне:
  • Аккорды и текст

Страница создана 06.04.2012
http://primanota.ru/deathstars/death-in-vogue-chords.htm
Привет, Гость.
Предлагаем пройти революционный курс по гитаре.
Подарок от PrimaNota.Ru, забирай!