PrimaNota.ru - самый крупный в мире бесплатный архив песенных текстов, аккордов, табулатур и нот


Crowbar - To Carry The Load - текст песни, таба, видео

Регистрация Запомнить меня
Войти через:  Facebook Google Twitter Vk Yandex Mail.ru

Crowbar - To Carry The Load - текст песни, таба, видео

Печатать
Просмотров: 145
Band:  CROWBAR
Album: Odd Fellows Rest
Song:  To Carry The Load

Transcribed by: general maxx
Tuning: 3.5 steps down

Keys:
 / \ - slide
 ___ - palm mute
  b  - bend
  r  - release bend
 <#> - Natural Harmonic


INTRO:

|----------------------------|
|----------------------------|
|----------------------------|
|----------------------------|
|----------------------------|
|-/7-6~-4-3~-2--/7-6~-4-3~-2-|


VERSE:

|----------------------------------------------------------------------|
|----------------------------------------------------------------------|
|------10--------------------------------10----------------------------|
|---10----10---10---9\----------------10----10---10---9\---------------|
|-8---------------8-7\--------------8---------------8-7\---------------|
|------------6----------0-0-0-0-0-0------------6----------/7-6~-4-3~-2-| 8x
                        ___________


CHORUS:

|---------------------------------------------|
|---------------------------------------------|
|---------------------------------------------|
|-9--------------------9----------------------|
|-7--2--/7-6-5--5-4-3--7--2-2--/7-6-5--5-4-3--|
|----0--------------------0-0-----------------| 2x


FILL:

|--------------------------------|
|--------------------------------|
|--------------------------------|
|--------------------------------|
|-2-2----------------------------|
|-0-0-/7-6~-4-3~-2--/7-6~-4-3~-2-|
  ___


VERSE - 4x


CHORUS - 2x


INTERLUDE:

|--------------------------------------------|
|--------------------------------------------|
|--------------------------------------------|
|-/7~----6~---\-------------------/5---------|
|--------------/6~------------5-4------------|
|-------------------6~--3-2-3--------7-4-6~--|

 ----------------------------------------------------------------|
 ----------------------------------------------------------------|
 -/4-------------------------------------------------------------|
 ---------------------------------------------------7\-----------|
 ----5---4-5-br~--2--3--5-3-2--5----2--3--5-3-2--5--5\--2--5--7--|
 ------7----------0--1--3-1-0--3----0--1--3-1-0--3------0--3--5--| 3x
                  ________________________________      _______


OUTRO:

|---------------------------------------------------|
|----------------<4>--------------------------------|
|----------------<4>--------------------------------|
|----------------<4>-------------------7\-----------|
|-2--3--5-3-2--5-------2--3--5-3-2--5--5\--2--5--7--|
|-0--1--3-1-0--3-------0--1--3-1-0--3------0--3--5--|
  ______________       ______________      _______

 ---------------------------------------------------|
 ----------------<3>--------------------------------|
 ------------------<3>------------------------------|
 --------------------------------------7\-----------|
 -2--3--5-3-2--5-------2--3--5-3-2--5--5\--2--5--7--|
 -0--1--3-1-0--3-------0--1--3-1-0--3------0--3--5--|
  ______________       ______________      _______

 ---------------------------------------------------|
 ---------------------------------------------------|
 ---------------------------------------------------|
 ----------------<5>-------------------7\-----------|
 -2--3--5-3-2--5-<5>---2--3--5-3-2--5--5\--2--5--7--|
 -0--1--3-1-0--3-------0--1--3-1-0--3------0--3--5--|
  ______________       ______________      _______

 -------------------------------------------------------------------|
 ------------------<3>----------------------------------------------|
 ----------------<4>------------------------------------------------|
 ----------------<4>-------------------7\---------------------------|
 -2--3--5-3-2--5-------2--3--5-3-2--5--5\--2--5--7--2--3--5-3-2--5\-|
 -0--1--3-1-0--3-------0--1--3-1-0--3------0--3--5--0--1--3-1-0--3\-|
  ______________       ______________      ________________________
Добавлено: 04.04.2012
Другие материалы по этой песне:
  • Аккорды и текст

Страница создана 05.03.2012
http://primanota.ru/crowbar/to-carry-the-load-chords.htm
Привет, Гость.
Предлагаем пройти революционный курс по гитаре.
Подарок от PrimaNota.Ru, забирай!