PrimaNota.ru - самый крупный в мире бесплатный архив песенных текстов, аккордов, табулатур и нот


Crowbar - The Cemetery Angels - текст песни, таба, видео

Регистрация Запомнить меня
Войти через:  Facebook Google Twitter Vk Yandex Mail.ru

Crowbar - The Cemetery Angels - текст песни, таба, видео

Печатать
Просмотров: 105
Title: The Cemetery Angels
Artist: Crowbar
Album: Sever the Wicked Hand
Tempo = 120
Rhythm Guitar 1
Drop A Tuning: A E A D F# B

Legend
L - tied note
x - dead note
h - hammer on/pull off
b - bend
s - slide
~ - vibrato
g - ghost note
> - accentuated note
t - trill
M - palm mute
. - staccato
P - popping (bass)
S - slapping (bass)
+ - tapping
W - wide vibrato
< - fade in
w - whammy bar
= - tremolo picking
v - brush up
^ - brush down
V - pick stroke up
n - pick stroke down


B ||---------------------------------------------------|
F#||---------------------------------------------------|
D ||o--------------------------------------------------|
A ||o--------------------------------------------------|
E ||-12----------------------12------------------------|
A ||-12----0--0L-0--0--0L-0--12----0--0L-0--0--0L-0----|


----------------------------------------------------|
----------------------------------------------------|
-----------------------------------5L-5s----7-------|
-----------------------------------5L-5s----7-------|
--13----------------------------0--3L-3s----5-------|
--13----0--0L-0--0--0L-0--3--5----------------------|


----------------------------------------------------|---------------||
----------------------------------------------------|---------------||
----------------------------------------------------|--12-12s10-10-o||
----------------------------------------------------|--12-12s10-10-o||
--12----------------------13------------------------|--10-10s8--8---||
--12----0--0L-0--0--0L-0--13----0--0L-0--0--0L-0----|--10-10s8--8---||


----------------------------------------------------|
----------------------------------------------------|
----------------------------------------------------|
----------------------------------------------------|
--12----------------------12------------------------|
--12----0--0L-0--0--0L-0--12----0--0L-0--0--0L-0----|


----------------------------------------------------|
----------------------------------------------------|
-----------------------------------5L-5s----7-------|
-----------------------------------5L-5s----7-------|
--13----------------------------0--3L-3s----5-------|
--13----0--0L-0--0--0L-0--3--5----------------------|


----------------------------------------------------|----------------|
----------------------------------------------------|----------------|
----------------------------------------------------|--12-12s10-10---|
----------------------------------------------------|--12-12s10-10---|
--12----------------------13------------------------|--10-10s8--8----|
--12----0--0L-0--0--0L-0--13----0--0L-0--0--0L-0----|--10-10s8--8----|


----------------------------------------------------|
----------------------------------------------------|
----------------------------------------------------|
----------------------------------------------------|
--12----------------------12------------------------|
--12----0--0L-0--0--0L-0--12----0--0L-0--0--0L-0----|


----------------------------------------------------|
----------------------------------------------------|
-----------------------------------5L-5s----7-------|
-----------------------------------5L-5s----7-------|
--13----------------------------0--3L-3s----5-------|
--13----0--0L-0--0--0L-0--3--5----------------------|


----------------------------------------------------|----------------|-------|
----------------------------------------------------|----------------|-------|
----------------------------------------------------|--12-12s10-10---|--8----|
----------------------------------------------------|--12-12s10-10---|--8----|
--12----------------------13------------------------|--10-10s8--8----|--6----|
--12----0--0L-0--0--0L-0--13----0--0L-0--0--0L-0----|--10-10s8--8----|--6----|


----------|-------|----------|-------|----------||---------------------------|
----------|-------|----------|-------|----------||---------------------------|
----------|-------|----------|--8----|----------||o8s-12-10-7L-7--7--8s------|
----------|-------|--5s-12---|--8----|----------||o8s-12-10-7L-7--7--8s------|
--8s-3s---|--0----|--3s-10---|--6----|--8s-3----||-6s-10-8--5L-5--5--6s------|
--8s-3s---|--0----|----------|--6----|--8s-3----||---------------------------|


---------------------------||----------------------------|
---------------------------||----------------------------|
--15L15b------------------o||--8s-12-10-7L-7--7--8s------|
--15L15b------------------o||--8s-12-10-7L-7--7--8s------|
--13L13b0L-0--0--0---------||--6s-10-8--5L-5--5--6s------|
--------0L-0--0--0--0M-0M--||----------------------------|


----------------------------|----------------------------|-------||
----------------------------|----------------------------|-------||
--15L15b--------------------|--8s-12-10-7L-7--7--8s------|--15b--||
--15L15b--------------------|--8s-12-10-7L-7--7--8s------|--15b--||
--13L13b0L-0--0--0----------|--6s-10-8--5L-5--5--6s------|--13b--||
--------0L-0--0--0--0M-0M---|----------------------------|-------||


---------------------------------------------------|
---------------------------------------------------|
o--------------------------------------------------|
o--------------------------------------------------|
-12----------------------12------------------------|
-12----0--0L-0--0--0L-0--12----0--0L-0--0--0L-0----|


----------------------------------------------------|
----------------------------------------------------|
-----------------------------------5L-5s----7-------|
-----------------------------------5L-5s----7-------|
--13----------------------------0--3L-3s----5-------|
--13----0--0L-0--0--0L-0--3--5----------------------|


----------------------------------------------------|---------------||
----------------------------------------------------|---------------||
----------------------------------------------------|--12-12s10-10-o||
----------------------------------------------------|--12-12s10-10-o||
--12----------------------13------------------------|--10-10s8--8---||
--12----0--0L-0--0--0L-0--13----0--0L-0--0--0L-0----|--10-10s8--8---||


----------------------------------------------------|
----------------------------------------------------|
----------------------------------------------------|
----------------------------------------------------|
--12----------------------12------------------------|
--12----0--0L-0--0--0L-0--12----0--0L-0--0--0L-0----|


----------------------------------------------------|
----------------------------------------------------|
-----------------------------------5L-5s----7-------|
-----------------------------------5L-5s----7-------|
--13----------------------------0--3L-3s----5-------|
--13----0--0L-0--0--0L-0--3--5----------------------|


----------------------------------------------------|----------------|
----------------------------------------------------|----------------|
----------------------------------------------------|--12-12s10-10---|
----------------------------------------------------|--12-12s10-10---|
--12----------------------13------------------------|--10-10s8--8----|
--12----0--0L-0--0--0L-0--13----0--0L-0--0--0L-0----|--10-10s8--8----|


----------------------------------------------------|
----------------------------------------------------|
----------------------------------------------------|
----------------------------------------------------|
--12----------------------12------------------------|
--12----0--0L-0--0--0L-0--12----0--0L-0--0--0L-0----|


----------------------------------------------------|
----------------------------------------------------|
-----------------------------------5L-5s----7-------|
-----------------------------------5L-5s----7-------|
--13----------------------------0--3L-3s----5-------|
--13----0--0L-0--0--0L-0--3--5----------------------|


----------------------------------------------------|
----------------------------------------------------|
----------------------------------------------------|
----------------------------------------------------|
--12----------------------13------------------------|
--12----0--0L-0--0--0L-0--13----0--0L-0--0--0L-0----|


----------------------------||------|----------|-------|---------||-------|
----------------------------||------|----------|-------|---------||-------|
--12----12s---10----10-9----||o8----|----------|-------|--------o||--8----|
--12----12s---10----10-9----||o8----|----------|-------|--5s-12-o||--8----|
--10----10s---8-----8--7----||-6----|--8s-3s---|--0----|--3s-10--||--6----|
--10----10s---8-----8--7----||-6----|--8s-3s---|--0----|---------||--6----|


----------||---------------------------|----------------------------|
----------||---------------------------|----------------------------|
----------||o8s-12-10-7L-7--7--8s------|--15L15b--------------------|
----------||o8s-12-10-7L-7--7--8s------|--15L15b--------------------|
--8s-3----||-6s-10-8--5L-5--5--6s------|--13L13b0L-0--0--0----------|
--8s-3----||---------------------------|--------0L-0--0--0--0M-0M---|


----------------------------|---------------------------||
----------------------------|---------------------------||
--8s-12-10-7L-7--7--8s------|--15L15b------------------o||
--8s-12-10-7L-7--7--8s------|--15L15b------------------o||
--6s-10-8--5L-5--5--6s------|--13L13b0L-0--0--0---------||
----------------------------|--------0L-0--0--0--0M-0M--||


----------------------------|----------------------------|
----------------------------|----------------------------|
--8s-12-10-7L-7--7--8s------|--15L15b--------------------|
--8s-12-10-7L-7--7--8s------|--15L15b--------------------|
--6s-10-8--5L-5--5--6s------|--13L13b0L-0--0--0----------|
----------------------------|--------0L-0--0--0--0M-0M---|


----------------------------|-------|-------||---------|----------------|
----------------------------|-------|-------||---------|----------------|
--8s-12-10-7L-7--7--8s------|--15b--|--0----||o--------|----------------|
--8s-12-10-7L-7--7--8s------|--15b--|--0----||o--------|----------------|
--6s-10-8--5L-5--5--6s------|--13b--|--0----||-0M-0M---|--0M----0M-0L---|
----------------------------|-------|-------||-0M-0M---|--0M----0M-0L---|


----------------------------|---------------------------|||
----------------------------|---------------------------|||
----------------------------|--------------------------o|||
----------------------------|--------------------------o|||
--0M----0M------------------|---------------------------|||
--0M----0M----0h-1s-3~------|--0h-3s-5b----5~-----------|||
Добавлено: 16.10.2015
Вам также может быть интересно:
Другие материалы по этой песне:

Страница создана 14.08.2014
http://primanota.ru/crowbar/cemetery-angels-chords.htm
Привет, Гость.
Предлагаем пройти революционный курс по гитаре.
Подарок от PrimaNota.Ru, забирай!