PrimaNota.ru - самый крупный в мире бесплатный архив песенных текстов, аккордов, табулатур и нот


Crowbar - Dream Weaver - текст песни, таба, видео

Регистрация Запомнить меня
Войти через:  Facebook Google Twitter Vk Yandex Mail.ru

Crowbar - Dream Weaver - текст песни, таба, видео

Печатать
Просмотров: 202
Tabbed by Five

======================
Crowbar - Dream Weaver
======================

Tuning is B (BEADFB).


B |--------|
F#|--------|
D |--------|
A |--------|
E |--------|
B |--/12\--|

# Riff 1:
|-----------------|
|-----------------|
|-----------------|
|--4-----2-----7--|
|--4-----2-----5--|
|--2-----0-----5--|

|---------------------------------|
|---------------------------------|
|---------------------------------|
|----------4-----2-----7---7---7--|
|----------4-----2-----5---5---5--|
|--/12\----2-----0-----5---5---5--|

|---------------------------------|
|---------------------------------|
|---------------------------------|
|----------7-----2-----7---7---7--|
|----------7-----2-----5---5---5--|
|--/12\----5-----0-----5---5---5--|

|-------------------------------------------------------|
|-------------------------------------------------------|
|-------------------------------------------------------|
|----------7-----2-----7--------------------------------|
|----------7-----2-----7-7-7-7-7-7-7-7-7-7-7-7-7-7-7-7--|
|--/12\----5-----0-----5-5-5-5-5-5-5-5-5-5-5-5-5-5-5-5--|
                         P P P P P P P P P P P P P P P

                                                 
# Riff 2 x 6:                                            
|------------------|
|------------------|
|------------------|
|--7---6---5---4~--|
|--7---6---5---4~--|
|--5---4---3---2~--|                             


# Riff  3:                                       
|-----------------|
|-----------------|
|-----------------|
|--7---6---7---7--|
|--5---6---5---7--|
|--5---4---5---5--|                                              

# Riff 1                        
# Riff 2 x 6
# Riff 3

# Riff 1
# Riff 2 x 24 (put some accent on the 4-4-2 vibrato every 6 times)

                                
Legend
======
\ ... Slide down
/ ... Slide up
~ ... Vibrato
P ... Palm-Mute                                  
Добавлено: 05.12.2013
Другие материалы по этой песне:
  • Аккорды и текст

Страница создана 16.04.2012
http://primanota.ru/crowbar/dream-weaver-chords.htm
Привет, Гость.
Предлагаем пройти революционный курс по гитаре.
Подарок от PrimaNota.Ru, забирай!