PrimaNota.ru - самый крупный в мире бесплатный архив песенных текстов, аккордов, табулатур и нот


Crowbar - Underworld - таба, видео

Регистрация Запомнить меня
Войти через:  Facebook Google Twitter Vk Yandex Mail.ru

Crowbar - Underworld - таба, видео

Печатать
Просмотров: 157
Band:  CROWBAR
Album: Life's Blood For The Downtrodden
Song:  Underworld

Transcribed by: general maxx

Tuning: 2.5 steps down (B)

Keys:
 ___ - palm mute
 / \ - slide
  b  - bend
  r  - release bend
  h  - hammer on


RIFF A:

|------------------------------|
|------------------------------|
|------------------------------|
|---9-9-9-7-5-5--8-7-8-7-10----|
|---7-7-7-7-5-5--8-7-8-7--8----|
|-0-------5-3-3--6-5-6-5--8----| 8x


RIFF Ba:

|-----------------------------------------------------------|
|-----------------------------------------------------------|
|-----------------------------------------------------------|
|----------------------------3----------------------3-------|
|-----2------------2------0-----2br~------2------0----------|
|-0-0-0--------0-0-0--8\--------------0-0-0--8\--------0h3~-|
  ___          ___                    ___

 -----------------------------|
 -----------------------------|
 -----------------------------|
 ---------------8-7-8-7-10----|
 -----2------0--8-7-8-7--8----|
 -0-0-0--8\-----6-5-6-5--8----|
  ___


RIFF A - 8x


RIFF Bb:

|-----------------------------------------------------------|
|-----------------------------------------------------------|
|-----------------------------------------------------------|
|----------------------------3----------------------3-------|
|-----2------------2------0-----2br~------2------0----------|
|-0-0-0--------0-0-0--8\--------------0-0-0--8\--------0h3~-|
  ___          ___                    ___

 -------------------------------------------------------------|
 -------------------------------------------------------------|
 -------------------------------------------------------------|
 ---------------3------------------------------------3--------|
 -----2------0-----2brbr~-----2------------2------0-----2br~--|
 -0-0-0--8\---------------0-0-0--------0-0-0--8\--------------|
  ___                     ___          ___

 --------------------------------------------------|
 --------------------------------------------------|
 --------------------------------------------------|
 ---------------3----------------------8-7-8-7-10--|
 -----2------0---------------2------0--8-7-8-7~-8--|
 -0-0-0--8\--------0h3~--0-0-0--8\-----6-5-6-5--8--|
  ___                    ___


RIFF C:

|-----------------------------------------|
|-----------------------------------------|
|----11\-----6-7-----6-7-8----------------|
|-2--11\--2--4-5--2--4-5-8----------------|
|-2---9\--2--4-5--2--4-5-6--9-8-9-10-9-8--|
|-0-------0-------0------6--7-6-7--8-7-6--|

 --------------------------------------|
 --------------------------------------|
 ----11\-----6-7-----6-7-8-------------|
 -2--11\--2--4-5--2--4-5-8-------------|
 -2---9\--2--4-5--2--4-5-6--9-8--9-8\--|
 -0-------0-------0------6--7-6--7-6\--| 4x


RIFF A - 8x


OUTRO:

|--------|
|--------|
|--------|
|--------|
|-----2--|
|-0-0-0--|
  ___
Добавлено: 23.07.2012
Другие материалы по этой песне:
  • Аккорды и текст

Страница создана 23.07.2012
http://primanota.ru/crowbar/underworld-chords.htm
Привет, Гость.
Предлагаем пройти революционный курс по гитаре.
Подарок от PrimaNota.Ru, забирай!