PrimaNota.ru - самый крупный в мире бесплатный архив песенных текстов, аккордов, табулатур и нот


Crowbar - Walk With Knowledge Wisely - таба, видео

Регистрация Запомнить меня
Войти через:  Facebook Google Twitter Vk Yandex Mail.ru

Crowbar - Walk With Knowledge Wisely - таба, видео

Печатать
Просмотров: 152
Уроки эстрадного вокала в Санкт-Петербурге
| /  slide up
| \  slide down
| h  hammer-on
| p  pull-off
| ~  vibrato
| .  palm mute

Riff 1:
 B|---------------------------------------------------------------------------|
F#|---------------------------------------------------------------------------|
 D|---------------------------------------------------------------------------|
 A|----------------------------------------------------------------~6-3-3-----|
 E|------5/6\5---~8--------------------------------5/6\5---5/6-5\4-~4-1-0-----|
 A|0-0-0-------0-----0-7-8--0-8-10--0-10-13--0-0-0-------0--------------------|
   . . .       .    you may use legato here  . . .       .

Riff 2:
 B|---------------------------------------------------------------------------|
F#|---------------------------------------------------------------------------|
 D|---------------------------------------------------------------------------|
 A|---------------------------------------------------------------------------|
 E|-------/~8---~6-----------------------/~8--------5---5-----8---6-----------|
 A|0-0-0------0----000-0-0-000-0-1-0-0-0-----00---6---6---6-5---5-------------|
   . . .      .    ... . . ... .   . . .     ..

Riff 3:
 B|---------------------------------------------------------------------------|
 F#|--------------------------------------------------------------------------|
 D|---------------------------------------------------------------------------|
 A|3-3-3-3-----------3-3-3-3--------------------------------------------------|
 E|1-0-1-0-----------1-0-1-0--------------------------------------------------|
 A|--------/3-2-/5\1---------~3-~2--------------------------------------------|

Riff 4:
 B|---------------------------------------------------------------------------|
F#|---------------------------------------------------------------------------|
 D|---------------------------------------------------------------------------|
 A|---------------------------------------------------------------------------|
 E|-~7-~8\(slide down to 0 fret)-/~5-5-5\3-~3--/~6-~5-~3----------------------|
 A|------------------------------------------------------3-3\1-~1-------------|
Harmony for Riff 4:
 B|---------------------------------------------------------------------------|
F#|---------------------------------------------------------------------------|
 D|---------------------------------------------------------------------------|
 A|-/~5-~7-/~8-5-5/7-~7-------------------------------------------------------|
 E|---------------------/~15-~13-~12-\3-3\1-~1--------------------------------|
 A|---------------------------------------------------------------------------|
    play it with one finger sliding between the notes for more fluid sound

Riff 5:
 B|---------------------------------------------------------------------------|
F#|---------------------------------------------------------------------------|
 E|---------------------------------------------------------------------------|
 A|---------------------------------------------------------------------------|
 E|-3h5-5-5------------3h5-5-5------6-5-6-5-3h5-5-5-----------6-5-6-5-0-1-2-1-|
 A|---------0-00-/8-~7---------0-00-6-5-6-5--------0-00-/8-~7-6-5-6-5-0-1-2-1-|
                                    . . . .                   . . . . . . . .
Riff 6:
 B|---------------------------------------------------------------------------|
F#|---------------------------------------------------------------------------|
 D|---------------------------------------------------------------------------|
 A|---------------------------------------------------------------------------|
 E|-6-5-6-5-0-1-2-1-----------------------------------------------------------|
 A|-6-5-6-5-0-1-2-1-----------------------------------------------------------|
    . . . . . . . .


Order:
Riff 1 (4x)
Riff 2 (4x)
Riff 3 (1x)
Riff 1 (2x)
Riff 4 (2x)
Riff 2 (4x)
Riff 3 (1x)
Riff 1 (2x)
Riff 4 (5x)
Riff 5 (4x)
Riff 4 (4x)
Riff 5 (2x)
Riff 6 (5x) gradually slow down
A5 ringing
Добавлено: 24.05.2016
Вам также может быть интересно:
Другие материалы по этой песне:

Страница создана 24.05.2016
http://primanota.ru/crowbar/walk-with-knowledge-wisely-chords.htm
Привет, Гость.
Предлагаем пройти революционный курс по гитаре.
Подарок от PrimaNota.Ru, забирай!